  0
SECTION
  2
HEADER
  9
$ACADVER
  1
AC1009
  9
$DWGCODEPAGE
  3
ansi_1252
  9
$INSBASE
 10
0.0
 20
0.0
 30
0.0
  9
$EXTMIN
 10
1.000000000000000E+20
 20
1.000000000000000E+20
 30
1.000000000000000E+20
  9
$EXTMAX
 10
-1.000000000000000E+20
 20
-1.000000000000000E+20
 30
-1.000000000000000E+20
  9
$LIMMIN
 10
0.0
 20
0.0
  9
$LIMMAX
 10
12.0
 20
9.0
  9
$ORTHOMODE
 70
     0
  9
$REGENMODE
 70
     1
  9
$FILLMODE
 70
     1
  9
$QTEXTMODE
 70
     0
  9
$MIRRTEXT
 70
     1
  9
$DRAGMODE
 70
     2
  9
$LTSCALE
 40
1.0
  9
$OSMODE
 70
    37
  9
$ATTMODE
 70
     1
  9
$TEXTSIZE
 40
0.125
  9
$TRACEWID
 40
0.05
  9
$TEXTSTYLE
  7
STANDARD
  9
$CLAYER
  8
0
  9
$CELTYPE
  6
BYLAYER
  9
$CECOLOR
 62
   251
  9
$DIMSCALE
 40
1.0
  9
$DIMASZ
 40
0.18
  9
$DIMEXO
 40
0.0625
  9
$DIMDLI
 40
0.38
  9
$DIMRND
 40
0.0
  9
$DIMDLE
 40
0.0
  9
$DIMEXE
 40
0.0225
  9
$DIMTP
 40
0.001
  9
$DIMTM
 40
-0.001
  9
$DIMTXT
 40
0.125
  9
$DIMCEN
 40
0.09
  9
$DIMTSZ
 40
0.0
  9
$DIMTOL
 70
     0
  9
$DIMLIM
 70
     0
  9
$DIMTIH
 70
     1
  9
$DIMTOH
 70
     1
  9
$DIMSE1
 70
     0
  9
$DIMSE2
 70
     0
  9
$DIMTAD
 70
     0
  9
$DIMZIN
 70
     0
  9
$DIMBLK
  1

  9
$DIMASO
 70
     1
  9
$DIMSHO
 70
     1
  9
$DIMPOST
  1

  9
$DIMAPOST
  1

  9
$DIMALT
 70
     0
  9
$DIMALTD
 70
     2
  9
$DIMALTF
 40
25.4
  9
$DIMLFAC
 40
1.0
  9
$DIMTOFL
 70
     0
  9
$DIMTVP
 40
0.0
  9
$DIMTIX
 70
     0
  9
$DIMSOXD
 70
     0
  9
$DIMSAH
 70
     0
  9
$DIMBLK1
  1

  9
$DIMBLK2
  1

  9
$DIMSTYLE
  2
STANDARD
  9
$DIMCLRD
 70
     0
  9
$DIMCLRE
 70
     0
  9
$DIMCLRT
 70
     0
  9
$DIMTFAC
 40
1.0
  9
$DIMGAP
 40
0.09
  9
$LUNITS
 70
     2
  9
$LUPREC
 70
     8
  9
$SKETCHINC
 40
0.1
  9
$FILLETRAD
 40
0.5
  9
$AUNITS
 70
     0
  9
$AUPREC
 70
     0
  9
$MENU
  1
.
  9
$ELEVATION
 40
0.0
  9
$PELEVATION
 40
0.0
  9
$THICKNESS
 40
0.0
  9
$LIMCHECK
 70
     0
  9
$CHAMFERA
 40
0.5
  9
$CHAMFERB
 40
0.5
  9
$SKPOLY
 70
     0
  9
$TDCREATE
 40
2456952.623254815
  9
$TDUPDATE
 40
2456952.623254826
  9
$TDINDWG
 40
0.0000000116
  9
$TDUSRTIMER
 40
0.0000000116
  9
$USRTIMER
 70
     1
  9
$ANGBASE
 50
0.0
  9
$ANGDIR
 70
     0
  9
$PDMODE
 70
     2
  9
$PDSIZE
 40
0.03
  9
$PLINEWID
 40
0.0
  9
$COORDS
 70
     1
  9
$SPLFRAME
 70
     0
  9
$SPLINETYPE
 70
     6
  9
$SPLINESEGS
 70
     8
  9
$ATTDIA
 70
     0
  9
$ATTREQ
 70
     1
  9
$HANDLING
 70
     1
  9
$HANDSEED
  5
61
  9
$SURFTAB1
 70
     6
  9
$SURFTAB2
 70
     6
  9
$SURFTYPE
 70
     6
  9
$SURFU
 70
     6
  9
$SURFV
 70
     6
  9
$UCSNAME
  2

  9
$UCSORG
 10
0.0
 20
0.0
 30
0.0
  9
$UCSXDIR
 10
1.0
 20
0.0
 30
0.0
  9
$UCSYDIR
 10
0.0
 20
1.0
 30
0.0
  9
$PUCSNAME
  2

  9
$PUCSORG
 10
0.0
 20
0.0
 30
0.0
  9
$PUCSXDIR
 10
1.0
 20
0.0
 30
0.0
  9
$PUCSYDIR
 10
0.0
 20
1.0
 30
0.0
  9
$USERI1
 70
     0
  9
$USERI2
 70
     0
  9
$USERI3
 70
     0
  9
$USERI4
 70
     0
  9
$USERI5
 70
     0
  9
$USERR1
 40
0.0
  9
$USERR2
 40
0.0
  9
$USERR3
 40
0.0
  9
$USERR4
 40
0.0
  9
$USERR5
 40
0.0
  9
$WORLDVIEW
 70
     1
  9
$SHADEDGE
 70
     3
  9
$SHADEDIF
 70
    70
  9
$TILEMODE
 70
     1
  9
$MAXACTVP
 70
    64
  9
$PLIMCHECK
 70
     0
  9
$PEXTMIN
 10
1.000000000000000E+20
 20
1.000000000000000E+20
 30
1.000000000000000E+20
  9
$PEXTMAX
 10
-1.000000000000000E+20
 20
-1.000000000000000E+20
 30
-1.000000000000000E+20
  9
$PLIMMIN
 10
-0.25
 20
-0.25
  9
$PLIMMAX
 10
10.75
 20
8.25
  9
$UNITMODE
 70
     0
  9
$VISRETAIN
 70
     1
  9
$PLINEGEN
 70
     0
  9
$PSLTSCALE
 70
     1
  0
ENDSEC
  0
SECTION
  2
TABLES
  0
TABLE
  2
VPORT
 70
     1
  0
VPORT
  2
*ACTIVE
 70
     0
 10
0.0
 20
0.0
 11
1.0
 21
1.0
 12
0.0
 22
0.0
 13
0.0
 23
0.0
 14
0.5
 24
0.5
 15
0.5
 25
0.5
 16
0.0
 26
0.0
 36
1.0
 17
0.5624999999813786
 27
0.3904999999999994
 37
0.0
 40
1.030999999999999
 41
1.091173617882875
 42
50.0
 43
0.0
 44
0.0
 50
0.0
 51
0.0
 71
     0
 72
 10000
 73
     1
 74
     3
 75
     0
 76
     0
 77
     0
 78
     0
  0
ENDTAB
  0
TABLE
  2
LTYPE
 70
     4
  0
LTYPE
  2
CONTINUOUS
 70
     0
  3
Solid line
 72
    65
 73
     0
 40
0.0
  0
LTYPE
  2
DASHED
 70
     0
  3
_ _ _ _ _ _ _ _ _ _ _ _ _ _ _ _
 72
    65
 73
     2
 40
0.2
 49
0.1
 49
-0.1
  0
LTYPE
  2
CENTER
 70
     0
  3
___ _ ___ _ ___ _ ___ _ ___ _ ___ _ ___ _ ___ _
 72
    65
 73
     4
 40
0.95
 49
0.625
 49
-0.125
 49
0.075
 49
-0.125
  0
LTYPE
  2
PHANTOM
 70
     0
  3
______  __  __  ______  __  __  ______  __  __  
 72
    65
 73
     6
 40
1.025
 49
0.625
 49
-0.125
 49
0.075
 49
-0.125
 49
0.075
 49
-0.125
  0
ENDTAB
  0
TABLE
  2
LAYER
 70
    10
  0
LAYER
  2
0
 70
     0
 62
     7
  6
CONTINUOUS
  0
LAYER
  2
PATTERN_3060__2_
 70
     0
 62
    89
  6
CONTINUOUS
  0
LAYER
  2
ORIGINAL_DXF__1_
 70
     0
 62
   -89
  6
CONTINUOUS
  0
LAYER
  2
BT-6552-02__3_
 70
     0
 62
   -89
  6
CONTINUOUS
  0
LAYER
  2
XA_SHAPER__5_
 70
     0
 62
   -89
  6
CONTINUOUS
  0
LAYER
  2
TURBOSAND__12_
 70
     0
 62
   -89
  6
CONTINUOUS
  0
LAYER
  2
MOLD__12_1_
 70
     0
 62
   -89
  6
CONTINUOUS
  0
LAYER
  2
POCKET_A__12_1_1_
 70
     0
 62
   -89
  6
CONTINUOUS
  0
LAYER
  2
POCKET_B__12_1_2_
 70
     0
 62
   -89
  6
CONTINUOUS
  0
LAYER
  2
TS5-FBB__12_5_
 70
     0
 62
   -89
  6
CONTINUOUS
  0
ENDTAB
  0
TABLE
  2
STYLE
 70
     1
  0
STYLE
  2
STANDARD
 70
     0
 40
0.0
 41
1.0
 50
0.0
 71
     0
 42
0.2
  3
txt
  4

  0
ENDTAB
  0
TABLE
  2
VIEW
 70
     2
  0
VIEW
  2
TOP_-_ISOMETRIC
 70
     0
 40
1.030999999999999
 10
0.5624999999813786
 20
0.3904999999999994
 41
1.125000000037243
 11
-0.4082482904361053
 21
0.4082482904361053
 31
0.8164965809554837
 12
0.0
 22
0.0
 32
0.0
 42
50.0
 43
0.0
 44
0.0
 50
-180.0
 71
     0
  0
VIEW
  2
UCSWORLD
 70
     0
 40
1.030999999999999
 10
0.5624999999813786
 20
0.3904999999999994
 41
1.125000000037243
 11
0.0
 21
0.0
 31
1.0
 12
0.0
 22
0.0
 32
0.0
 42
50.0
 43
0.0
 44
0.0
 50
0.0
 71
     0
  0
ENDTAB
  0
TABLE
  2
UCS
 70
     2
  0
UCS
  2
TOP_-_ISOMETRIC
 70
     0
 10
0.0
 20
0.0
 30
0.0
 11
0.7071067811865476
 21
0.7071067811865475
 31
0.0
 12
-0.5773502692092535
 22
0.5773502692092534
 32
-0.5773502691503705
  0
UCS
  2
UCSWORLD
 70
     0
 10
0.0
 20
0.0
 30
0.0
 11
1.0
 21
0.0
 31
0.0
 12
0.0
 22
1.0
 32
0.0
  0
ENDTAB
  0
TABLE
  2
APPID
 70
     1
  0
APPID
  2
ACAD
 70
     0
  0
ENDTAB
  0
TABLE
  2
DIMSTYLE
 70
     1
  0
DIMSTYLE
  2
STANDARD
 70
     0
  3

  4

  5

  6

  7

 40
1.0
 41
0.18
 42
0.0625
 43
0.38
 44
0.18
 45
0.0
 46
0.0
 47
0.0
 48
0.0
140
0.18
141
0.09
142
0.0
143
25.4
144
1.0
145
0.0
146
1.0
147
0.09
 71
     0
 72
     0
 73
     1
 74
     1
 75
     0
 76
     0
 77
     0
 78
     0
170
     0
171
     2
172
     0
173
     0
174
     0
175
     0
176
     0
177
     0
178
     0
  0
ENDTAB
  0
ENDSEC
  0
SECTION
  2
BLOCKS
  0
BLOCK
  8
0
  2
$MODEL_SPACE
 70
     0
 10
0.0
 20
0.0
 30
0.0
  3
$MODEL_SPACE
  1

  0
ENDBLK
  5
21
  8
0
  0
BLOCK
 67
     1
  8
0
  2
$PAPER_SPACE
 70
     0
 10
0.0
 20
0.0
 30
0.0
  3
$PAPER_SPACE
  1

  0
ENDBLK
  5
1D
 67
     1
  8
0
  0
ENDSEC
  0
SECTION
  2
ENTITIES
  0
LINE
  5
49
  8
PATTERN_3060__2_
  6
DASHED
 62
    15
 10
0.6226551648327889
 20
0.7809999999999988
 30
0.0
 11
1.125
 21
0.7809999999999988
 31
0.0
  0
LINE
  5
4A
  8
PATTERN_3060__2_
  6
DASHED
 62
    15
 10
0.0299999999717568
 20
0.0
 30
0.0
 11
1.125
 21
0.0
 31
0.0
  0
ARC
  5
4B
  8
PATTERN_3060__2_
  6
CONTINUOUS
 62
     6
 10
0.124999999999992
 20
0.3921704841754932
 30
0.0
 40
0.125
 50
95.00000000000173
 51
180.0
  0
ARC
  5
4C
  8
PATTERN_3060__2_
  6
CONTINUOUS
 62
     6
 10
0.1931150479950159
 20
0.5487027543220865
 30
0.0
 40
0.025
 50
275.0000000000016
 51
343.2967220597287
  0
ARC
  5
4D
  8
PATTERN_3060__2_
  6
CONTINUOUS
 62
     6
 10
0.5676551648327889
 20
0.7174218049964431
 30
0.0
 40
0.025
 50
274.999999999997
 51
0.0
  0
ARC
  5
4E
  8
PATTERN_3060__2_
  6
CONTINUOUS
 62
     6
 10
0.5479980678424501
 20
0.6504537424116427
 30
0.0
 40
0.04
 50
94.9999999999971
 51
130.4572750829967
  0
ARC
  5
4F
  8
PATTERN_3060__2_
  6
CONTINUOUS
 62
     6
 10
0.257655164832746
 20
0.5376278907644203
 30
0.0
 40
0.04
 50
89.9565261806787
 51
163.2967220597288
  0
ARC
  5
50
  8
PATTERN_3060__2_
  6
CONTINUOUS
 62
     6
 10
0.2579799146318112
 20
0.9656277675606268
 30
0.0
 40
0.388
 50
269.9565261806787
 51
310.4572750829969
  0
LINE
  5
51
  8
PATTERN_3060__2_
  6
CONTINUOUS
 62
     5
 10
-0.000000000000008
 20
0.392170484184
 30
0.0
 11
-0.0000000000282432
 21
0.0
 31
0.0
  0
LINE
  5
52
  8
PATTERN_3060__2_
  6
CONTINUOUS
 62
     5
 10
0.5926551648327889
 20
0.717421804996443
 30
0.0
 11
0.5926551648327889
 21
0.7809999999999988
 31
0.0
  0
LINE
  5
53
  8
PATTERN_3060__2_
  6
CONTINUOUS
 62
     5
 10
0.5097456806811602
 20
0.6704024315110519
 30
0.0
 11
0.5220428342291152
 21
0.6808893440662381
 31
0.0
  0
LINE
  5
54
  8
PATTERN_3060__2_
  6
CONTINUOUS
 62
     5
 10
0.2193429227072224
 20
0.5491245034531756
 30
0.0
 11
0.2170601993234683
 21
0.5415173713916144
 31
0.0
  0
LINE
  5
55
  8
PATTERN_3060__2_
  6
CONTINUOUS
 62
     5
 10
0.5445118381325458
 20
0.6903015303353127
 30
0.0
 11
0.569834058401479
 21
0.6925169375441494
 31
0.0
  0
LINE
  5
56
  8
PATTERN_3060__2_
  6
CONTINUOUS
 62
     5
 10
0.1141055321565072
 20
0.5166948214369589
 30
0.0
 11
0.1952939415637082
 21
0.5237978868697929
 31
0.0
  0
LINE
  5
57
  8
PATTERN_3060__2_
  6
CONTINUOUS
 62
   251
 10
0.5926551648327889
 20
0.8109999999999988
 30
0.0
 11
0.5926551648327889
 21
0.9059999999999988
 31
0.0
  0
LINE
  5
58
  8
PATTERN_3060__2_
  6
CONTINUOUS
 62
   251
 10
0.5926551648327889
 20
0.9059999999999988
 30
0.0
 11
0.8426551648327889
 21
0.9059999999999988
 31
0.0
  0
LINE
  5
59
  8
PATTERN_3060__2_
  6
CONTINUOUS
 62
   251
 10
-0.0000000000372428
 20
-0.125
 30
0.0
 11
0.2499999999627572
 21
-0.125
 31
0.0
  0
LINE
  5
5A
  8
PATTERN_3060__2_
  6
CONTINUOUS
 62
   251
 10
-0.0000000000304031
 20
-0.03
 30
0.0
 11
-0.0000000000372428
 21
-0.125
 31
0.0
  0
VIEWPORT
  5
5D
 67
     1
  8
0
 62
   251
 10
5.25
 20
4.0
 30
0.0
 40
11.638
 41
8.993
 68
     1
 69
     1
1001
ACAD
1000
MVIEW
1002
{
1070
    16
1010
0.0
1020
0.0
1030
0.0
1020
0.0
1030
0.0
1010
0.0
1020
0.0
1030
1.0
1020
0.0
1030
1.0
1040
0.0
1040
8.993
1040
5.25
1040
4.0
1040
50.0
1040
0.0
1040
0.0
1070
     0
1070
   100
1070
     0
1070
     3
1070
     0
1070
     0
1070
     0
1070
     0
1040
0.0
1040
0.0
1040
0.0
1040
0.5
1040
0.5
1040
0.5
1040
0.5
1070
     0
1002
{
1002
}
1002
}
  0
ENDSEC
  0
EOF
