  0
SECTION
  2
HEADER
  9
$ACADVER
  1
AC1012
  9
$DWGCODEPAGE
  3
dos850
  9
$INSBASE
 10
0.0
 20
0.0
 30
0.0
  9
$EXTMIN
 10
-2.1974674483
 20
-1.175302394
 30
0.0
  9
$EXTMAX
 10
1.8604517477
 20
1.5474612499
 30
0.0
  9
$LIMMIN
 10
0.0
 20
0.0
  9
$LIMMAX
 10
0.0
 20
0.0
  9
$ORTHOMODE
 70
         0
  9
$REGENMODE
 70
         1
  9
$FILLMODE
 70
         1
  9
$QTEXTMODE
 70
         0
  9
$MIRRTEXT
 70
         1
  9
$DRAGMODE
 70
         2
  9
$LTSCALE
 40
1.0
  9
$OSMODE
 70
         0
  9
$ATTMODE
 70
         1
  9
$TEXTSIZE
 40
0.125
  9
$TRACEWID
 40
0.05
  9
$TEXTSTYLE
  7
STANDARD
  9
$CLAYER
  8
0
  9
$CELTYPE
  6
CONTINUOUS
  9
$CECOLOR
 62
         2
  9
$CELTSCALE
 40
1.0
  9
$DELOBJ
 70
         1
  9
$DISPSILH
 70
         0
  9
$DIMSCALE
 40
1.0
  9
$DIMASZ
 40
0.18
  9
$DIMEXO
 40
0.0625
  9
$DIMDLI
 40
0.38
  9
$DIMRND
 40
0.0
  9
$DIMDLE
 40
0.0
  9
$DIMEXE
 40
0.25
  9
$DIMTP
 40
0.01
  9
$DIMTM
 40
-0.01
  9
$DIMTXT
 40
0.125
  9
$DIMCEN
 40
0.09
  9
$DIMTSZ
 40
0.0
  9
$DIMTOL
 70
         0
  9
$DIMLIM
 70
         0
  9
$DIMTIH
 70
         1
  9
$DIMTOH
 70
         1
  9
$DIMSE1
 70
         0
  9
$DIMSE2
 70
         0
  9
$DIMTAD
 70
         0
  9
$DIMZIN
 70
         0
  9
$DIMBLK
  1

  9
$DIMASO
 70
         1
  9
$DIMSHO
 70
         1
  9
$DIMPOST
  1

  9
$DIMAPOST
  1

  9
$DIMALT
 70
         0
  9
$DIMALTD
 70
         2
  9
$DIMALTF
 40
25.4
  9
$DIMLFAC
 40
1.0
  9
$DIMTOFL
 70
         0
  9
$DIMTVP
 40
0.0
  9
$DIMTIX
 70
         0
  9
$DIMSOXD
 70
         0
  9
$DIMSAH
 70
         0
  9
$DIMBLK1
  1

  9
$DIMBLK2
  1

  9
$DIMSTYLE
  2
STANDARD
  9
$DIMCLRD
 70
         0
  9
$DIMCLRE
 70
         0
  9
$DIMCLRT
 70
         2
  9
$DIMTFAC
 40
0.625
  9
$DIMGAP
 40
0.09
  9
$DIMJUST
 70
         0
  9
$DIMSD1
 70
         0
  9
$DIMSD2
 70
         0
  9
$DIMTOLJ
 70
         1
  9
$DIMTZIN
 70
         0
  9
$DIMALTZ
 70
         0
  9
$DIMALTTZ
 70
         0
  9
$DIMFIT
 70
         3
  9
$DIMUPT
 70
         0
  9
$DIMUNIT
 70
         2
  9
$DIMDEC
 70
         4
  9
$DIMTDEC
 70
         4
  9
$DIMALTU
 70
         2
  9
$DIMALTTD
 70
         2
  9
$DIMTXSTY
  7
STANDARD
  9
$DIMAUNIT
 70
         0
  9
$LUNITS
 70
         2
  9
$LUPREC
 70
        10
  9
$SKETCHINC
 40
0.1
  9
$FILLETRAD
 40
0.0
  9
$AUNITS
 70
         0
  9
$AUPREC
 70
         0
  9
$MENU
  1
acad
  9
$ELEVATION
 40
0.0
  9
$PELEVATION
 40
0.0
  9
$THICKNESS
 40
0.0
  9
$LIMCHECK
 70
         0
  9
$BLIPMODE
 70
         1
  9
$CHAMFERA
 40
0.0
  9
$CHAMFERB
 40
0.0
  9
$CHAMFERC
 40
0.0
  9
$CHAMFERD
 40
0.0
  9
$SKPOLY
 70
         0
  9
$TDCREATE
 40
0.000000000
  9
$TDUPDATE
 40
0.000000000
  9
$TDINDWG
 40
0.0000000000
  9
$TDUSRTIMER
 40
0.0000000000
  9
$USRTIMER
 70
         1
  9
$ANGBASE
 50
0.0
  9
$ANGDIR
 70
         0
  9
$PDMODE
 70
         2
  9
$PDSIZE
 40
0.0
  9
$PLINEWID
 40
0.0
  9
$COORDS
 70
         0
  9
$SPLFRAME
 70
         0
  9
$SPLINETYPE
 70
         6
  9
$SPLINESEGS
 70
         8
  9
$ATTDIA
 70
         0
  9
$ATTREQ
 70
         1
  9
$HANDLING
 70
         1
  9
$HANDSEED
  5
17C
  9
$SURFTAB1
 70
         6
  9
$SURFTAB2
 70
         6
  9
$SURFTYPE
 70
         6
  9
$SURFU
 70
         6
  9
$SURFV
 70
         6
  9
$UCSNAME
  2

  9
$UCSORG
 10
0.0
 20
0.0
 30
0.0
  9
$UCSXDIR
 10
1.0
 20
0.0
 30
0.0
  9
$UCSYDIR
 10
0.0
 20
1.0
 30
0.0
  9
$PUCSNAME
  2

  9
$PUCSORG
 10
0.0
 20
0.0
 30
0.0
  9
$PUCSXDIR
 10
1.0
 20
0.0
 30
0.0
  9
$PUCSYDIR
 10
0.0
 20
1.0
 30
0.0
  9
$USERI1
 70
         0
  9
$USERI2
 70
         0
  9
$USERI3
 70
         0
  9
$USERI4
 70
         0
  9
$USERI5
 70
         0
  9
$USERR1
 40
0.0
  9
$USERR2
 40
0.0
  9
$USERR3
 40
0.0
  9
$USERR4
 40
0.0
  9
$USERR5
 40
0.0
  9
$WORLDVIEW
 70
         1
  9
$SHADEDGE
 70
         3
  9
$SHADEDIF
 70
        70
  9
$TILEMODE
 70
         1
  9
$MAXACTVP
 70
        16
  9
$PINSBASE
 10
0.0
 20
0.0
 30
0.0
  9
$PLIMCHECK
 70
         0
  9
$PEXTMIN
 10
1.0000000000E+20
 20
1.0000000000E+20
 30
1.0000000000E+20
  9
$PEXTMAX
 10
-1.0000000000E+20
 20
-1.0000000000E+20
 30
-1.0000000000E+20
  9
$PLIMMIN
 10
0.0
 20
0.0
  9
$PLIMMAX
 10
12.0
 20
9.0
  9
$UNITMODE
 70
         0
  9
$VISRETAIN
 70
         0
  9
$PLINEGEN
 70
         1
  9
$PSLTSCALE
 70
         0
  9
$TREEDEPTH
 70
      3020
  9
$PICKSTYLE
 70
         1
  9
$CMLSTYLE
  2
STANDARD
  9
$CMLJUST
 70
         0
  9
$CMLSCALE
 40
1.0
  9
$SAVEIMAGES
 70
         0
  0
ENDSEC
  0
SECTION
  2
CLASSES
  0
CLASS
  1
LWPOLYLINE
  2
AcDbPolyline
  3
"AutoCAD"
 90
        0
280
         0
281
         1
  0
CLASS
  1
IMAGE
  2
AcDbRasterImage
  3
ISM
 90
      127
280
         0
281
         1
  0
CLASS
  1
OLE2FRAME
  2
AcDbOle2Frame
  3
""
 90
        0
280
         0
281
         1
  0
CLASS
  1
HATCH
  2
AcDbHatch
  3
"ACAD_SEDONA"
 90
        0
280
         0
281
         1
  0
CLASS
  1
DICTIONARYVAR
  2
AcDbDictionaryVar
  3
"AutoCAD"
 90
        0
280
         0
281
         0
  0
CLASS
  1
RASTERVARIABLES
  2
AcDbRasterVariables
  3
ISM
 90
        0
280
         0
281
         0
  0
CLASS
  1
IMAGEDEF
  2
AcDbRasterImageDef
  3
ISM
 90
        0
280
         0
281
         0
  0
CLASS
  1
IMAGEDEF_REACTOR
  2
AcDbRasterImageDefReactor
  3
ISM
 90
        1
280
         0
281
         0
  0
CLASS
  1
IDBUFFER
  2
AcDbIdBuffer
  3
"Acad"
 90
        0
280
         0
281
         0
  0
CLASS
  1
SPATIAL_FILTER
  2
AcDbSpatialFilter
  3
"Acad"
 90
        0
280
         0
281
         0
  0
CLASS
  1
XRECORD
  2
AcDbXrecord
  3
"<Built In>"
 90
        0
280
         0
281
         0
  0
CLASS
  1
SORTENTSTABLE
  2
AcDbSortentsTable
  3
"AutoCAD"
 90
        0
280
         0
281
         0
  0
CLASS
  1
LAYER_INDEX
  2
AcDbLayerIndex
  3
"Acad"
 90
        0
280
         0
281
         0
  0
CLASS
  1
SPATIAL_INDEX
  2
AcDbSpatialIndex
  3
"Acad"
 90
        0
280
         0
281
         0
  0
CLASS
  1
OBJECT_PTR
  2
CAseDLPNTableRecord
  3
"ASE-LPNTableRecord"
 90
        1
280
         0
281
         0
  0
ENDSEC
  0
SECTION
  2
TABLES
  0
TABLE
  2
VPORT
  5
7
100
AcDbSymbolTable
 70
         1
  0
VPORT
  5
15
100
AcDbSymbolTableRecord
100
AcDbViewportTableRecord
  2
*ACTIVE
 70
         0
 10
0.0
 20
0.0
 11
1.0
 21
1.0
 12
-0.1685078503
 22
0.1860794279
 13
0.0
 23
0.0
 14
1.0
 24
1.0
 15
0.0
 25
0.0
 16
0.0
 26
0.0
 36
1.0
 17
0.0
 27
0.0
 37
0.0
 40
2.7227636439
 41
1.4903677758
 42
50.0
 43
0.0
 44
0.0
 50
0.0
 51
0.0
 71
         0
 72
       100
 73
         1
 74
         1
 75
         0
 76
         0
 77
         0
 78
         0
  0
ENDTAB
  0
TABLE
  2
LTYPE
  5
4
100
AcDbSymbolTable
 70
         6
  0
LTYPE
  5
11
100
AcDbSymbolTableRecord
100
AcDbLinetypeTableRecord
  2
BYBLOCK
 70
         0
  3

 72
        65
 73
         0
 40
0.0
  0
LTYPE
  5
12
100
AcDbSymbolTableRecord
100
AcDbLinetypeTableRecord
  2
BYLAYER
 70
         0
  3

 72
        65
 73
         0
 40
0.0
  0
LTYPE
  5
13
100
AcDbSymbolTableRecord
100
AcDbLinetypeTableRecord
  2
CONTINUOUS
 70
         0
  3
Solid line
 72
        65
 73
         0
 40
0.0
  0
LTYPE
  5
1D
100
AcDbSymbolTableRecord
100
AcDbLinetypeTableRecord
  2
DASHED
 70
         0
  3
_ _ _ _ _ _ _ _ _ _ _ _ _ _ _ _
 72
        65
 73
         2
 40
0.2
 49
0.1
 74
         0
 49
-0.1
 74
         0
  0
LTYPE
  5
1E
100
AcDbSymbolTableRecord
100
AcDbLinetypeTableRecord
  2
CENTER
 70
         0
  3
___ _ ___ _ ___ _ ___ _ ___ _ ___ _ ___ _ ___ _
 72
        65
 73
         4
 40
0.95
 49
0.625
 74
         0
 49
-0.125
 74
         0
 49
0.075
 74
         0
 49
-0.125
 74
         0
  0
LTYPE
  5
1F
100
AcDbSymbolTableRecord
100
AcDbLinetypeTableRecord
  2
PHANTOM
 70
         0
  3
______  __  __  ______  __  __  ______  __  __  
 72
        65
 73
         6
 40
1.025
 49
0.625
 74
         0
 49
-0.125
 74
         0
 49
0.075
 74
         0
 49
-0.125
 74
         0
 49
0.075
 74
         0
 49
-0.125
 74
         0
  0
ENDTAB
  0
TABLE
  2
LAYER
  5
2
100
AcDbSymbolTable
 70
       203
  0
LAYER
  5
14
100
AcDbSymbolTableRecord
100
AcDbLayerTableRecord
  2
0
 70
         0
 62
         7
  6
CONTINUOUS
  0
LAYER
  5
21
100
AcDbSymbolTableRecord
100
AcDbLayerTableRecord
  2
ORIGINAL_DXF_FILE_DATA
 70
         0
 62
         7
  6
CONTINUOUS
  0
LAYER
  5
22
100
AcDbSymbolTableRecord
100
AcDbLayerTableRecord
  2
PATTERN__1803
 70
         0
 62
         7
  6
CONTINUOUS
  0
LAYER
  5
23
100
AcDbSymbolTableRecord
100
AcDbLayerTableRecord
  2
CK_LEVEL_3
 70
         0
 62
         7
  6
CONTINUOUS
  0
LAYER
  5
24
100
AcDbSymbolTableRecord
100
AcDbLayerTableRecord
  2
CK_LEVEL_4
 70
         0
 62
         7
  6
CONTINUOUS
  0
LAYER
  5
25
100
AcDbSymbolTableRecord
100
AcDbLayerTableRecord
  2
_A__INSERT_SHAPER__10__TILT
 70
         0
 62
         7
  6
CONTINUOUS
  0
LAYER
  5
26
100
AcDbSymbolTableRecord
100
AcDbLayerTableRecord
  2
CK_LEVEL_6
 70
         0
 62
         7
  6
CONTINUOUS
  0
LAYER
  5
27
100
AcDbSymbolTableRecord
100
AcDbLayerTableRecord
  2
CK_LEVEL_7
 70
         0
 62
         7
  6
CONTINUOUS
  0
LAYER
  5
28
100
AcDbSymbolTableRecord
100
AcDbLayerTableRecord
  2
CK_LEVEL_8
 70
         0
 62
         7
  6
CONTINUOUS
  0
LAYER
  5
29
100
AcDbSymbolTableRecord
100
AcDbLayerTableRecord
  2
AP-1803-01_REVERSE_TEMPLATE
 70
         0
 62
         7
  6
CONTINUOUS
  0
LAYER
  5
2A
100
AcDbSymbolTableRecord
100
AcDbLayerTableRecord
  2
BT-4375-02_PROFILE_TEMPLATE
 70
         0
 62
         7
  6
CONTINUOUS
  0
LAYER
  5
2B
100
AcDbSymbolTableRecord
100
AcDbLayerTableRecord
  2
TS6-FBB_SANDING_HEAD
 70
         0
 62
         7
  6
CONTINUOUS
  0
LAYER
  5
2C
100
AcDbSymbolTableRecord
100
AcDbLayerTableRecord
  2
B1414-15_POCKET_A_04_19_04
 70
         0
 62
         7
  6
CONTINUOUS
  0
LAYER
  5
2D
100
AcDbSymbolTableRecord
100
AcDbLayerTableRecord
  2
B1414-15_POCKET_B_04_19_04
 70
         0
 62
         7
  6
CONTINUOUS
  0
LAYER
  5
2E
100
AcDbSymbolTableRecord
100
AcDbLayerTableRecord
  2
CK_LEVEL_14
 70
         0
 62
         7
  6
CONTINUOUS
  0
LAYER
  5
2F
100
AcDbSymbolTableRecord
100
AcDbLayerTableRecord
  2
CK_LEVEL_15
 70
         0
 62
         7
  6
CONTINUOUS
  0
LAYER
  5
30
100
AcDbSymbolTableRecord
100
AcDbLayerTableRecord
  2
CK_LEVEL_16
 70
         0
 62
         7
  6
CONTINUOUS
  0
LAYER
  5
31
100
AcDbSymbolTableRecord
100
AcDbLayerTableRecord
  2
CK_LEVEL_17
 70
         0
 62
         7
  6
CONTINUOUS
  0
LAYER
  5
32
100
AcDbSymbolTableRecord
100
AcDbLayerTableRecord
  2
CK_LEVEL_18
 70
         0
 62
         7
  6
CONTINUOUS
  0
LAYER
  5
33
100
AcDbSymbolTableRecord
100
AcDbLayerTableRecord
  2
CK_LEVEL_19
 70
         0
 62
         7
  6
CONTINUOUS
  0
LAYER
  5
34
100
AcDbSymbolTableRecord
100
AcDbLayerTableRecord
  2
CK_LEVEL_20
 70
         0
 62
         7
  6
CONTINUOUS
  0
LAYER
  5
35
100
AcDbSymbolTableRecord
100
AcDbLayerTableRecord
  2
CK_LEVEL_21
 70
         0
 62
         7
  6
CONTINUOUS
  0
LAYER
  5
36
100
AcDbSymbolTableRecord
100
AcDbLayerTableRecord
  2
CK_LEVEL_22
 70
         0
 62
         7
  6
CONTINUOUS
  0
LAYER
  5
37
100
AcDbSymbolTableRecord
100
AcDbLayerTableRecord
  2
CK_LEVEL_23
 70
         0
 62
         7
  6
CONTINUOUS
  0
LAYER
  5
38
100
AcDbSymbolTableRecord
100
AcDbLayerTableRecord
  2
MOLD_BASE
 70
         0
 62
         7
  6
CONTINUOUS
  0
LAYER
  5
39
100
AcDbSymbolTableRecord
100
AcDbLayerTableRecord
  2
CK_LEVEL_25
 70
         0
 62
         7
  6
CONTINUOUS
  0
LAYER
  5
3A
100
AcDbSymbolTableRecord
100
AcDbLayerTableRecord
  2
CK_LEVEL_26
 70
         0
 62
         7
  6
CONTINUOUS
  0
LAYER
  5
3B
100
AcDbSymbolTableRecord
100
AcDbLayerTableRecord
  2
CK_LEVEL_27
 70
         0
 62
         7
  6
CONTINUOUS
  0
LAYER
  5
3C
100
AcDbSymbolTableRecord
100
AcDbLayerTableRecord
  2
CK_LEVEL_28
 70
         0
 62
         7
  6
CONTINUOUS
  0
LAYER
  5
3D
100
AcDbSymbolTableRecord
100
AcDbLayerTableRecord
  2
CK_LEVEL_29
 70
         0
 62
         7
  6
CONTINUOUS
  0
LAYER
  5
3E
100
AcDbSymbolTableRecord
100
AcDbLayerTableRecord
  2
CK_LEVEL_30
 70
         0
 62
         7
  6
CONTINUOUS
  0
LAYER
  5
3F
100
AcDbSymbolTableRecord
100
AcDbLayerTableRecord
  2
CK_LEVEL_31
 70
         0
 62
         7
  6
CONTINUOUS
  0
LAYER
  5
40
100
AcDbSymbolTableRecord
100
AcDbLayerTableRecord
  2
CK_LEVEL_32
 70
         0
 62
         7
  6
CONTINUOUS
  0
LAYER
  5
41
100
AcDbSymbolTableRecord
100
AcDbLayerTableRecord
  2
CK_LEVEL_33
 70
         0
 62
         7
  6
CONTINUOUS
  0
LAYER
  5
42
100
AcDbSymbolTableRecord
100
AcDbLayerTableRecord
  2
CK_LEVEL_34
 70
         0
 62
         7
  6
CONTINUOUS
  0
LAYER
  5
43
100
AcDbSymbolTableRecord
100
AcDbLayerTableRecord
  2
CK_LEVEL_35
 70
         0
 62
         7
  6
CONTINUOUS
  0
LAYER
  5
44
100
AcDbSymbolTableRecord
100
AcDbLayerTableRecord
  2
CK_LEVEL_36
 70
         0
 62
         7
  6
CONTINUOUS
  0
LAYER
  5
45
100
AcDbSymbolTableRecord
100
AcDbLayerTableRecord
  2
CK_LEVEL_37
 70
         0
 62
         7
  6
CONTINUOUS
  0
LAYER
  5
46
100
AcDbSymbolTableRecord
100
AcDbLayerTableRecord
  2
CK_LEVEL_38
 70
         0
 62
         7
  6
CONTINUOUS
  0
LAYER
  5
47
100
AcDbSymbolTableRecord
100
AcDbLayerTableRecord
  2
CK_LEVEL_39
 70
         0
 62
         7
  6
CONTINUOUS
  0
LAYER
  5
48
100
AcDbSymbolTableRecord
100
AcDbLayerTableRecord
  2
CK_LEVEL_40
 70
         0
 62
         7
  6
CONTINUOUS
  0
LAYER
  5
49
100
AcDbSymbolTableRecord
100
AcDbLayerTableRecord
  2
CK_LEVEL_41
 70
         0
 62
         7
  6
CONTINUOUS
  0
LAYER
  5
4A
100
AcDbSymbolTableRecord
100
AcDbLayerTableRecord
  2
CK_LEVEL_42
 70
         0
 62
         7
  6
CONTINUOUS
  0
LAYER
  5
4B
100
AcDbSymbolTableRecord
100
AcDbLayerTableRecord
  2
CK_LEVEL_43
 70
         0
 62
         7
  6
CONTINUOUS
  0
LAYER
  5
4C
100
AcDbSymbolTableRecord
100
AcDbLayerTableRecord
  2
CK_LEVEL_44
 70
         0
 62
         7
  6
CONTINUOUS
  0
LAYER
  5
4D
100
AcDbSymbolTableRecord
100
AcDbLayerTableRecord
  2
CK_LEVEL_45
 70
         0
 62
         7
  6
CONTINUOUS
  0
LAYER
  5
4E
100
AcDbSymbolTableRecord
100
AcDbLayerTableRecord
  2
CK_LEVEL_46
 70
         0
 62
         7
  6
CONTINUOUS
  0
LAYER
  5
4F
100
AcDbSymbolTableRecord
100
AcDbLayerTableRecord
  2
CK_LEVEL_47
 70
         0
 62
         7
  6
CONTINUOUS
  0
LAYER
  5
50
100
AcDbSymbolTableRecord
100
AcDbLayerTableRecord
  2
CK_LEVEL_48
 70
         0
 62
         7
  6
CONTINUOUS
  0
LAYER
  5
51
100
AcDbSymbolTableRecord
100
AcDbLayerTableRecord
  2
CK_LEVEL_49
 70
         0
 62
         7
  6
CONTINUOUS
  0
LAYER
  5
52
100
AcDbSymbolTableRecord
100
AcDbLayerTableRecord
  2
CK_LEVEL_50
 70
         0
 62
         7
  6
CONTINUOUS
  0
LAYER
  5
53
100
AcDbSymbolTableRecord
100
AcDbLayerTableRecord
  2
CK_LEVEL_51
 70
         0
 62
         7
  6
CONTINUOUS
  0
LAYER
  5
54
100
AcDbSymbolTableRecord
100
AcDbLayerTableRecord
  2
CK_LEVEL_52
 70
         0
 62
         7
  6
CONTINUOUS
  0
LAYER
  5
55
100
AcDbSymbolTableRecord
100
AcDbLayerTableRecord
  2
CK_LEVEL_53
 70
         0
 62
         7
  6
CONTINUOUS
  0
LAYER
  5
56
100
AcDbSymbolTableRecord
100
AcDbLayerTableRecord
  2
CK_LEVEL_54
 70
         0
 62
         7
  6
CONTINUOUS
  0
LAYER
  5
57
100
AcDbSymbolTableRecord
100
AcDbLayerTableRecord
  2
CK_LEVEL_55
 70
         0
 62
         7
  6
CONTINUOUS
  0
LAYER
  5
58
100
AcDbSymbolTableRecord
100
AcDbLayerTableRecord
  2
CK_LEVEL_56
 70
         0
 62
         7
  6
CONTINUOUS
  0
LAYER
  5
59
100
AcDbSymbolTableRecord
100
AcDbLayerTableRecord
  2
CK_LEVEL_57
 70
         0
 62
         7
  6
CONTINUOUS
  0
LAYER
  5
5A
100
AcDbSymbolTableRecord
100
AcDbLayerTableRecord
  2
CK_LEVEL_58
 70
         0
 62
         7
  6
CONTINUOUS
  0
LAYER
  5
5B
100
AcDbSymbolTableRecord
100
AcDbLayerTableRecord
  2
CK_LEVEL_59
 70
         0
 62
         7
  6
CONTINUOUS
  0
LAYER
  5
5C
100
AcDbSymbolTableRecord
100
AcDbLayerTableRecord
  2
CK_LEVEL_60
 70
         0
 62
         7
  6
CONTINUOUS
  0
LAYER
  5
5D
100
AcDbSymbolTableRecord
100
AcDbLayerTableRecord
  2
CK_LEVEL_61
 70
         0
 62
         7
  6
CONTINUOUS
  0
LAYER
  5
5E
100
AcDbSymbolTableRecord
100
AcDbLayerTableRecord
  2
CK_LEVEL_62
 70
         0
 62
         7
  6
CONTINUOUS
  0
LAYER
  5
5F
100
AcDbSymbolTableRecord
100
AcDbLayerTableRecord
  2
CK_LEVEL_63
 70
         0
 62
         7
  6
CONTINUOUS
  0
LAYER
  5
60
100
AcDbSymbolTableRecord
100
AcDbLayerTableRecord
  2
CK_LEVEL_64
 70
         0
 62
         7
  6
CONTINUOUS
  0
LAYER
  5
61
100
AcDbSymbolTableRecord
100
AcDbLayerTableRecord
  2
CK_LEVEL_65
 70
         0
 62
         7
  6
CONTINUOUS
  0
LAYER
  5
62
100
AcDbSymbolTableRecord
100
AcDbLayerTableRecord
  2
CK_LEVEL_66
 70
         0
 62
         7
  6
CONTINUOUS
  0
LAYER
  5
63
100
AcDbSymbolTableRecord
100
AcDbLayerTableRecord
  2
CK_LEVEL_67
 70
         0
 62
         7
  6
CONTINUOUS
  0
LAYER
  5
64
100
AcDbSymbolTableRecord
100
AcDbLayerTableRecord
  2
CK_LEVEL_68
 70
         0
 62
         7
  6
CONTINUOUS
  0
LAYER
  5
65
100
AcDbSymbolTableRecord
100
AcDbLayerTableRecord
  2
CK_LEVEL_69
 70
         0
 62
         7
  6
CONTINUOUS
  0
LAYER
  5
66
100
AcDbSymbolTableRecord
100
AcDbLayerTableRecord
  2
CK_LEVEL_70
 70
         0
 62
         7
  6
CONTINUOUS
  0
LAYER
  5
67
100
AcDbSymbolTableRecord
100
AcDbLayerTableRecord
  2
CK_LEVEL_71
 70
         0
 62
         7
  6
CONTINUOUS
  0
LAYER
  5
68
100
AcDbSymbolTableRecord
100
AcDbLayerTableRecord
  2
CK_LEVEL_72
 70
         0
 62
         7
  6
CONTINUOUS
  0
LAYER
  5
69
100
AcDbSymbolTableRecord
100
AcDbLayerTableRecord
  2
CK_LEVEL_73
 70
         0
 62
         7
  6
CONTINUOUS
  0
LAYER
  5
6A
100
AcDbSymbolTableRecord
100
AcDbLayerTableRecord
  2
CK_LEVEL_74
 70
         0
 62
         7
  6
CONTINUOUS
  0
LAYER
  5
6B
100
AcDbSymbolTableRecord
100
AcDbLayerTableRecord
  2
CK_LEVEL_75
 70
         0
 62
         7
  6
CONTINUOUS
  0
LAYER
  5
6C
100
AcDbSymbolTableRecord
100
AcDbLayerTableRecord
  2
CK_LEVEL_76
 70
         0
 62
         7
  6
CONTINUOUS
  0
LAYER
  5
6D
100
AcDbSymbolTableRecord
100
AcDbLayerTableRecord
  2
CK_LEVEL_77
 70
         0
 62
         7
  6
CONTINUOUS
  0
LAYER
  5
6E
100
AcDbSymbolTableRecord
100
AcDbLayerTableRecord
  2
CK_LEVEL_78
 70
         0
 62
         7
  6
CONTINUOUS
  0
LAYER
  5
6F
100
AcDbSymbolTableRecord
100
AcDbLayerTableRecord
  2
CK_LEVEL_79
 70
         0
 62
         7
  6
CONTINUOUS
  0
LAYER
  5
70
100
AcDbSymbolTableRecord
100
AcDbLayerTableRecord
  2
CK_LEVEL_80
 70
         0
 62
         7
  6
CONTINUOUS
  0
LAYER
  5
71
100
AcDbSymbolTableRecord
100
AcDbLayerTableRecord
  2
CK_LEVEL_81
 70
         0
 62
         7
  6
CONTINUOUS
  0
LAYER
  5
72
100
AcDbSymbolTableRecord
100
AcDbLayerTableRecord
  2
CK_LEVEL_82
 70
         0
 62
         7
  6
CONTINUOUS
  0
LAYER
  5
73
100
AcDbSymbolTableRecord
100
AcDbLayerTableRecord
  2
CK_LEVEL_83
 70
         0
 62
         7
  6
CONTINUOUS
  0
LAYER
  5
74
100
AcDbSymbolTableRecord
100
AcDbLayerTableRecord
  2
CK_LEVEL_84
 70
         0
 62
         7
  6
CONTINUOUS
  0
LAYER
  5
75
100
AcDbSymbolTableRecord
100
AcDbLayerTableRecord
  2
CK_LEVEL_85
 70
         0
 62
         7
  6
CONTINUOUS
  0
LAYER
  5
76
100
AcDbSymbolTableRecord
100
AcDbLayerTableRecord
  2
CK_LEVEL_86
 70
         0
 62
         7
  6
CONTINUOUS
  0
LAYER
  5
77
100
AcDbSymbolTableRecord
100
AcDbLayerTableRecord
  2
CK_LEVEL_87
 70
         0
 62
         7
  6
CONTINUOUS
  0
LAYER
  5
78
100
AcDbSymbolTableRecord
100
AcDbLayerTableRecord
  2
CK_LEVEL_88
 70
         0
 62
         7
  6
CONTINUOUS
  0
LAYER
  5
79
100
AcDbSymbolTableRecord
100
AcDbLayerTableRecord
  2
CK_LEVEL_89
 70
         0
 62
         7
  6
CONTINUOUS
  0
LAYER
  5
7A
100
AcDbSymbolTableRecord
100
AcDbLayerTableRecord
  2
CK_LEVEL_90
 70
         0
 62
         7
  6
CONTINUOUS
  0
LAYER
  5
7B
100
AcDbSymbolTableRecord
100
AcDbLayerTableRecord
  2
CK_LEVEL_91
 70
         0
 62
         7
  6
CONTINUOUS
  0
LAYER
  5
7C
100
AcDbSymbolTableRecord
100
AcDbLayerTableRecord
  2
CK_LEVEL_92
 70
         0
 62
         7
  6
CONTINUOUS
  0
LAYER
  5
7D
100
AcDbSymbolTableRecord
100
AcDbLayerTableRecord
  2
CK_LEVEL_93
 70
         0
 62
         7
  6
CONTINUOUS
  0
LAYER
  5
7E
100
AcDbSymbolTableRecord
100
AcDbLayerTableRecord
  2
CK_LEVEL_94
 70
         0
 62
         7
  6
CONTINUOUS
  0
LAYER
  5
7F
100
AcDbSymbolTableRecord
100
AcDbLayerTableRecord
  2
CK_LEVEL_95
 70
         0
 62
         7
  6
CONTINUOUS
  0
LAYER
  5
80
100
AcDbSymbolTableRecord
100
AcDbLayerTableRecord
  2
CK_LEVEL_96
 70
         0
 62
         7
  6
CONTINUOUS
  0
LAYER
  5
81
100
AcDbSymbolTableRecord
100
AcDbLayerTableRecord
  2
CK_LEVEL_97
 70
         0
 62
         7
  6
CONTINUOUS
  0
LAYER
  5
82
100
AcDbSymbolTableRecord
100
AcDbLayerTableRecord
  2
CK_LEVEL_98
 70
         0
 62
         7
  6
CONTINUOUS
  0
LAYER
  5
83
100
AcDbSymbolTableRecord
100
AcDbLayerTableRecord
  2
CK_LEVEL_99
 70
         0
 62
         7
  6
CONTINUOUS
  0
LAYER
  5
84
100
AcDbSymbolTableRecord
100
AcDbLayerTableRecord
  2
CK_LEVEL_100
 70
         0
 62
         7
  6
CONTINUOUS
  0
LAYER
  5
85
100
AcDbSymbolTableRecord
100
AcDbLayerTableRecord
  2
CK_LEVEL_101
 70
         0
 62
         7
  6
CONTINUOUS
  0
LAYER
  5
86
100
AcDbSymbolTableRecord
100
AcDbLayerTableRecord
  2
CK_LEVEL_102
 70
         0
 62
         7
  6
CONTINUOUS
  0
LAYER
  5
87
100
AcDbSymbolTableRecord
100
AcDbLayerTableRecord
  2
CK_LEVEL_103
 70
         0
 62
         7
  6
CONTINUOUS
  0
LAYER
  5
88
100
AcDbSymbolTableRecord
100
AcDbLayerTableRecord
  2
CK_LEVEL_104
 70
         0
 62
         7
  6
CONTINUOUS
  0
LAYER
  5
89
100
AcDbSymbolTableRecord
100
AcDbLayerTableRecord
  2
CK_LEVEL_105
 70
         0
 62
         7
  6
CONTINUOUS
  0
LAYER
  5
8A
100
AcDbSymbolTableRecord
100
AcDbLayerTableRecord
  2
CK_LEVEL_106
 70
         0
 62
         7
  6
CONTINUOUS
  0
LAYER
  5
8B
100
AcDbSymbolTableRecord
100
AcDbLayerTableRecord
  2
CK_LEVEL_107
 70
         0
 62
         7
  6
CONTINUOUS
  0
LAYER
  5
8C
100
AcDbSymbolTableRecord
100
AcDbLayerTableRecord
  2
CK_LEVEL_108
 70
         0
 62
         7
  6
CONTINUOUS
  0
LAYER
  5
8D
100
AcDbSymbolTableRecord
100
AcDbLayerTableRecord
  2
CK_LEVEL_109
 70
         0
 62
         7
  6
CONTINUOUS
  0
LAYER
  5
8E
100
AcDbSymbolTableRecord
100
AcDbLayerTableRecord
  2
CK_LEVEL_110
 70
         0
 62
         7
  6
CONTINUOUS
  0
LAYER
  5
8F
100
AcDbSymbolTableRecord
100
AcDbLayerTableRecord
  2
CK_LEVEL_111
 70
         0
 62
         7
  6
CONTINUOUS
  0
LAYER
  5
90
100
AcDbSymbolTableRecord
100
AcDbLayerTableRecord
  2
CK_LEVEL_112
 70
         0
 62
         7
  6
CONTINUOUS
  0
LAYER
  5
91
100
AcDbSymbolTableRecord
100
AcDbLayerTableRecord
  2
CK_LEVEL_113
 70
         0
 62
         7
  6
CONTINUOUS
  0
LAYER
  5
92
100
AcDbSymbolTableRecord
100
AcDbLayerTableRecord
  2
CK_LEVEL_114
 70
         0
 62
         7
  6
CONTINUOUS
  0
LAYER
  5
93
100
AcDbSymbolTableRecord
100
AcDbLayerTableRecord
  2
CK_LEVEL_115
 70
         0
 62
         7
  6
CONTINUOUS
  0
LAYER
  5
94
100
AcDbSymbolTableRecord
100
AcDbLayerTableRecord
  2
CK_LEVEL_116
 70
         0
 62
         7
  6
CONTINUOUS
  0
LAYER
  5
95
100
AcDbSymbolTableRecord
100
AcDbLayerTableRecord
  2
CK_LEVEL_117
 70
         0
 62
         7
  6
CONTINUOUS
  0
LAYER
  5
96
100
AcDbSymbolTableRecord
100
AcDbLayerTableRecord
  2
CK_LEVEL_118
 70
         0
 62
         7
  6
CONTINUOUS
  0
LAYER
  5
97
100
AcDbSymbolTableRecord
100
AcDbLayerTableRecord
  2
CK_LEVEL_119
 70
         0
 62
         7
  6
CONTINUOUS
  0
LAYER
  5
98
100
AcDbSymbolTableRecord
100
AcDbLayerTableRecord
  2
CK_LEVEL_120
 70
         0
 62
         7
  6
CONTINUOUS
  0
LAYER
  5
99
100
AcDbSymbolTableRecord
100
AcDbLayerTableRecord
  2
CK_LEVEL_121
 70
         0
 62
         7
  6
CONTINUOUS
  0
LAYER
  5
9A
100
AcDbSymbolTableRecord
100
AcDbLayerTableRecord
  2
CK_LEVEL_122
 70
         0
 62
         7
  6
CONTINUOUS
  0
LAYER
  5
9B
100
AcDbSymbolTableRecord
100
AcDbLayerTableRecord
  2
CK_LEVEL_123
 70
         0
 62
         7
  6
CONTINUOUS
  0
LAYER
  5
9C
100
AcDbSymbolTableRecord
100
AcDbLayerTableRecord
  2
CK_LEVEL_124
 70
         0
 62
         7
  6
CONTINUOUS
  0
LAYER
  5
9D
100
AcDbSymbolTableRecord
100
AcDbLayerTableRecord
  2
CK_LEVEL_125
 70
         0
 62
         7
  6
CONTINUOUS
  0
LAYER
  5
9E
100
AcDbSymbolTableRecord
100
AcDbLayerTableRecord
  2
CK_LEVEL_126
 70
         0
 62
         7
  6
CONTINUOUS
  0
LAYER
  5
9F
100
AcDbSymbolTableRecord
100
AcDbLayerTableRecord
  2
CK_LEVEL_127
 70
         0
 62
         7
  6
CONTINUOUS
  0
LAYER
  5
A0
100
AcDbSymbolTableRecord
100
AcDbLayerTableRecord
  2
CK_LEVEL_128
 70
         0
 62
         7
  6
CONTINUOUS
  0
LAYER
  5
A1
100
AcDbSymbolTableRecord
100
AcDbLayerTableRecord
  2
CK_LEVEL_129
 70
         0
 62
         7
  6
CONTINUOUS
  0
LAYER
  5
A2
100
AcDbSymbolTableRecord
100
AcDbLayerTableRecord
  2
CK_LEVEL_130
 70
         0
 62
         7
  6
CONTINUOUS
  0
LAYER
  5
A3
100
AcDbSymbolTableRecord
100
AcDbLayerTableRecord
  2
CK_LEVEL_131
 70
         0
 62
         7
  6
CONTINUOUS
  0
LAYER
  5
A4
100
AcDbSymbolTableRecord
100
AcDbLayerTableRecord
  2
CK_LEVEL_132
 70
         0
 62
         7
  6
CONTINUOUS
  0
LAYER
  5
A5
100
AcDbSymbolTableRecord
100
AcDbLayerTableRecord
  2
CK_LEVEL_133
 70
         0
 62
         7
  6
CONTINUOUS
  0
LAYER
  5
A6
100
AcDbSymbolTableRecord
100
AcDbLayerTableRecord
  2
CK_LEVEL_134
 70
         0
 62
         7
  6
CONTINUOUS
  0
LAYER
  5
A7
100
AcDbSymbolTableRecord
100
AcDbLayerTableRecord
  2
CK_LEVEL_135
 70
         0
 62
         7
  6
CONTINUOUS
  0
LAYER
  5
A8
100
AcDbSymbolTableRecord
100
AcDbLayerTableRecord
  2
CK_LEVEL_136
 70
         0
 62
         7
  6
CONTINUOUS
  0
LAYER
  5
A9
100
AcDbSymbolTableRecord
100
AcDbLayerTableRecord
  2
CK_LEVEL_137
 70
         0
 62
         7
  6
CONTINUOUS
  0
LAYER
  5
AA
100
AcDbSymbolTableRecord
100
AcDbLayerTableRecord
  2
CK_LEVEL_138
 70
         0
 62
         7
  6
CONTINUOUS
  0
LAYER
  5
AB
100
AcDbSymbolTableRecord
100
AcDbLayerTableRecord
  2
CK_LEVEL_139
 70
         0
 62
         7
  6
CONTINUOUS
  0
LAYER
  5
AC
100
AcDbSymbolTableRecord
100
AcDbLayerTableRecord
  2
CK_LEVEL_140
 70
         0
 62
         7
  6
CONTINUOUS
  0
LAYER
  5
AD
100
AcDbSymbolTableRecord
100
AcDbLayerTableRecord
  2
CK_LEVEL_141
 70
         0
 62
         7
  6
CONTINUOUS
  0
LAYER
  5
AE
100
AcDbSymbolTableRecord
100
AcDbLayerTableRecord
  2
CK_LEVEL_142
 70
         0
 62
         7
  6
CONTINUOUS
  0
LAYER
  5
AF
100
AcDbSymbolTableRecord
100
AcDbLayerTableRecord
  2
CK_LEVEL_143
 70
         0
 62
         7
  6
CONTINUOUS
  0
LAYER
  5
B0
100
AcDbSymbolTableRecord
100
AcDbLayerTableRecord
  2
CK_LEVEL_144
 70
         0
 62
         7
  6
CONTINUOUS
  0
LAYER
  5
B1
100
AcDbSymbolTableRecord
100
AcDbLayerTableRecord
  2
CK_LEVEL_145
 70
         0
 62
         7
  6
CONTINUOUS
  0
LAYER
  5
B2
100
AcDbSymbolTableRecord
100
AcDbLayerTableRecord
  2
CK_LEVEL_146
 70
         0
 62
         7
  6
CONTINUOUS
  0
LAYER
  5
B3
100
AcDbSymbolTableRecord
100
AcDbLayerTableRecord
  2
CK_LEVEL_147
 70
         0
 62
         7
  6
CONTINUOUS
  0
LAYER
  5
B4
100
AcDbSymbolTableRecord
100
AcDbLayerTableRecord
  2
CK_LEVEL_148
 70
         0
 62
         7
  6
CONTINUOUS
  0
LAYER
  5
B5
100
AcDbSymbolTableRecord
100
AcDbLayerTableRecord
  2
CK_LEVEL_149
 70
         0
 62
         7
  6
CONTINUOUS
  0
LAYER
  5
B6
100
AcDbSymbolTableRecord
100
AcDbLayerTableRecord
  2
CK_LEVEL_150
 70
         0
 62
         7
  6
CONTINUOUS
  0
LAYER
  5
B7
100
AcDbSymbolTableRecord
100
AcDbLayerTableRecord
  2
CK_LEVEL_151
 70
         0
 62
         7
  6
CONTINUOUS
  0
LAYER
  5
B8
100
AcDbSymbolTableRecord
100
AcDbLayerTableRecord
  2
CK_LEVEL_152
 70
         0
 62
         7
  6
CONTINUOUS
  0
LAYER
  5
B9
100
AcDbSymbolTableRecord
100
AcDbLayerTableRecord
  2
CK_LEVEL_153
 70
         0
 62
         7
  6
CONTINUOUS
  0
LAYER
  5
BA
100
AcDbSymbolTableRecord
100
AcDbLayerTableRecord
  2
CK_LEVEL_154
 70
         0
 62
         7
  6
CONTINUOUS
  0
LAYER
  5
BB
100
AcDbSymbolTableRecord
100
AcDbLayerTableRecord
  2
CK_LEVEL_155
 70
         0
 62
         7
  6
CONTINUOUS
  0
LAYER
  5
BC
100
AcDbSymbolTableRecord
100
AcDbLayerTableRecord
  2
CK_LEVEL_156
 70
         0
 62
         7
  6
CONTINUOUS
  0
LAYER
  5
BD
100
AcDbSymbolTableRecord
100
AcDbLayerTableRecord
  2
CK_LEVEL_157
 70
         0
 62
         7
  6
CONTINUOUS
  0
LAYER
  5
BE
100
AcDbSymbolTableRecord
100
AcDbLayerTableRecord
  2
CK_LEVEL_158
 70
         0
 62
         7
  6
CONTINUOUS
  0
LAYER
  5
BF
100
AcDbSymbolTableRecord
100
AcDbLayerTableRecord
  2
CK_LEVEL_159
 70
         0
 62
         7
  6
CONTINUOUS
  0
LAYER
  5
C0
100
AcDbSymbolTableRecord
100
AcDbLayerTableRecord
  2
CK_LEVEL_160
 70
         0
 62
         7
  6
CONTINUOUS
  0
LAYER
  5
C1
100
AcDbSymbolTableRecord
100
AcDbLayerTableRecord
  2
CK_LEVEL_161
 70
         0
 62
         7
  6
CONTINUOUS
  0
LAYER
  5
C2
100
AcDbSymbolTableRecord
100
AcDbLayerTableRecord
  2
CK_LEVEL_162
 70
         0
 62
         7
  6
CONTINUOUS
  0
LAYER
  5
C3
100
AcDbSymbolTableRecord
100
AcDbLayerTableRecord
  2
CK_LEVEL_163
 70
         0
 62
         7
  6
CONTINUOUS
  0
LAYER
  5
C4
100
AcDbSymbolTableRecord
100
AcDbLayerTableRecord
  2
CK_LEVEL_164
 70
         0
 62
         7
  6
CONTINUOUS
  0
LAYER
  5
C5
100
AcDbSymbolTableRecord
100
AcDbLayerTableRecord
  2
CK_LEVEL_165
 70
         0
 62
         7
  6
CONTINUOUS
  0
LAYER
  5
C6
100
AcDbSymbolTableRecord
100
AcDbLayerTableRecord
  2
CK_LEVEL_166
 70
         0
 62
         7
  6
CONTINUOUS
  0
LAYER
  5
C7
100
AcDbSymbolTableRecord
100
AcDbLayerTableRecord
  2
CK_LEVEL_167
 70
         0
 62
         7
  6
CONTINUOUS
  0
LAYER
  5
C8
100
AcDbSymbolTableRecord
100
AcDbLayerTableRecord
  2
CK_LEVEL_168
 70
         0
 62
         7
  6
CONTINUOUS
  0
LAYER
  5
C9
100
AcDbSymbolTableRecord
100
AcDbLayerTableRecord
  2
CK_LEVEL_169
 70
         0
 62
         7
  6
CONTINUOUS
  0
LAYER
  5
CA
100
AcDbSymbolTableRecord
100
AcDbLayerTableRecord
  2
CK_LEVEL_170
 70
         0
 62
         7
  6
CONTINUOUS
  0
LAYER
  5
CB
100
AcDbSymbolTableRecord
100
AcDbLayerTableRecord
  2
CK_LEVEL_171
 70
         0
 62
         7
  6
CONTINUOUS
  0
LAYER
  5
CC
100
AcDbSymbolTableRecord
100
AcDbLayerTableRecord
  2
CK_LEVEL_172
 70
         0
 62
         7
  6
CONTINUOUS
  0
LAYER
  5
CD
100
AcDbSymbolTableRecord
100
AcDbLayerTableRecord
  2
CK_LEVEL_173
 70
         0
 62
         7
  6
CONTINUOUS
  0
LAYER
  5
CE
100
AcDbSymbolTableRecord
100
AcDbLayerTableRecord
  2
CK_LEVEL_174
 70
         0
 62
         7
  6
CONTINUOUS
  0
LAYER
  5
CF
100
AcDbSymbolTableRecord
100
AcDbLayerTableRecord
  2
CK_LEVEL_175
 70
         0
 62
         7
  6
CONTINUOUS
  0
LAYER
  5
D0
100
AcDbSymbolTableRecord
100
AcDbLayerTableRecord
  2
CK_LEVEL_176
 70
         0
 62
         7
  6
CONTINUOUS
  0
LAYER
  5
D1
100
AcDbSymbolTableRecord
100
AcDbLayerTableRecord
  2
CK_LEVEL_177
 70
         0
 62
         7
  6
CONTINUOUS
  0
LAYER
  5
D2
100
AcDbSymbolTableRecord
100
AcDbLayerTableRecord
  2
CK_LEVEL_178
 70
         0
 62
         7
  6
CONTINUOUS
  0
LAYER
  5
D3
100
AcDbSymbolTableRecord
100
AcDbLayerTableRecord
  2
CK_LEVEL_179
 70
         0
 62
         7
  6
CONTINUOUS
  0
LAYER
  5
D4
100
AcDbSymbolTableRecord
100
AcDbLayerTableRecord
  2
CK_LEVEL_180
 70
         0
 62
         7
  6
CONTINUOUS
  0
LAYER
  5
D5
100
AcDbSymbolTableRecord
100
AcDbLayerTableRecord
  2
CK_LEVEL_181
 70
         0
 62
         7
  6
CONTINUOUS
  0
LAYER
  5
D6
100
AcDbSymbolTableRecord
100
AcDbLayerTableRecord
  2
CK_LEVEL_182
 70
         0
 62
         7
  6
CONTINUOUS
  0
LAYER
  5
D7
100
AcDbSymbolTableRecord
100
AcDbLayerTableRecord
  2
CK_LEVEL_183
 70
         0
 62
         7
  6
CONTINUOUS
  0
LAYER
  5
D8
100
AcDbSymbolTableRecord
100
AcDbLayerTableRecord
  2
CK_LEVEL_184
 70
         0
 62
         7
  6
CONTINUOUS
  0
LAYER
  5
D9
100
AcDbSymbolTableRecord
100
AcDbLayerTableRecord
  2
CK_LEVEL_185
 70
         0
 62
         7
  6
CONTINUOUS
  0
LAYER
  5
DA
100
AcDbSymbolTableRecord
100
AcDbLayerTableRecord
  2
CK_LEVEL_186
 70
         0
 62
         7
  6
CONTINUOUS
  0
LAYER
  5
DB
100
AcDbSymbolTableRecord
100
AcDbLayerTableRecord
  2
CK_LEVEL_187
 70
         0
 62
         7
  6
CONTINUOUS
  0
LAYER
  5
DC
100
AcDbSymbolTableRecord
100
AcDbLayerTableRecord
  2
CK_LEVEL_188
 70
         0
 62
         7
  6
CONTINUOUS
  0
LAYER
  5
DD
100
AcDbSymbolTableRecord
100
AcDbLayerTableRecord
  2
CK_LEVEL_189
 70
         0
 62
         7
  6
CONTINUOUS
  0
LAYER
  5
DE
100
AcDbSymbolTableRecord
100
AcDbLayerTableRecord
  2
CK_LEVEL_190
 70
         0
 62
         7
  6
CONTINUOUS
  0
LAYER
  5
DF
100
AcDbSymbolTableRecord
100
AcDbLayerTableRecord
  2
CK_LEVEL_191
 70
         0
 62
         7
  6
CONTINUOUS
  0
LAYER
  5
E0
100
AcDbSymbolTableRecord
100
AcDbLayerTableRecord
  2
CK_LEVEL_192
 70
         0
 62
         7
  6
CONTINUOUS
  0
LAYER
  5
E1
100
AcDbSymbolTableRecord
100
AcDbLayerTableRecord
  2
CK_LEVEL_193
 70
         0
 62
         7
  6
CONTINUOUS
  0
LAYER
  5
E2
100
AcDbSymbolTableRecord
100
AcDbLayerTableRecord
  2
CK_LEVEL_194
 70
         0
 62
         7
  6
CONTINUOUS
  0
LAYER
  5
E3
100
AcDbSymbolTableRecord
100
AcDbLayerTableRecord
  2
CK_LEVEL_195
 70
         0
 62
         7
  6
CONTINUOUS
  0
LAYER
  5
E4
100
AcDbSymbolTableRecord
100
AcDbLayerTableRecord
  2
CK_LEVEL_196
 70
         0
 62
         7
  6
CONTINUOUS
  0
LAYER
  5
E5
100
AcDbSymbolTableRecord
100
AcDbLayerTableRecord
  2
CK_LEVEL_197
 70
         0
 62
         7
  6
CONTINUOUS
  0
LAYER
  5
E6
100
AcDbSymbolTableRecord
100
AcDbLayerTableRecord
  2
CK_LEVEL_198
 70
         0
 62
         7
  6
CONTINUOUS
  0
LAYER
  5
E7
100
AcDbSymbolTableRecord
100
AcDbLayerTableRecord
  2
CK_LEVEL_199
 70
         0
 62
         7
  6
CONTINUOUS
  0
LAYER
  5
E8
100
AcDbSymbolTableRecord
100
AcDbLayerTableRecord
  2
DRAWING_BORDER
 70
         0
 62
         7
  6
CONTINUOUS
  0
LAYER
  5
E9
100
AcDbSymbolTableRecord
100
AcDbLayerTableRecord
  2
VOORWOOD_LOGO
 70
         0
 62
         7
  6
CONTINUOUS
  0
LAYER
  5
EA
100
AcDbSymbolTableRecord
100
AcDbLayerTableRecord
  2
TURBOSAND_LOGO
 70
         0
 62
         7
  6
CONTINUOUS
  0
ENDTAB
  0
TABLE
  2
STYLE
  5
3
100
AcDbSymbolTable
 70
         1
  0
STYLE
  5
17
100
AcDbSymbolTableRecord
100
AcDbTextStyleTableRecord
  2
STANDARD
 70
         0
 40
0.0
 41
1.0
 50
0.0
 71
         0
 42
0.0
  3
txt
  4

  0
ENDTAB
  0
TABLE
  2
VIEW
  5
5
100
AcDbSymbolTable
 70
         0
  0
ENDTAB
  0
TABLE
  2
UCS
  5
6
100
AcDbSymbolTable
 70
         1
  0
UCS
  5
20
100
AcDbSymbolTableRecord
100
AcDbUCSTableRecord
  2
CK_VIEW_1
 70
         0
 10
0.0
 20
0.0
 30
1.0
 11
1.0
 21
0.0
 31
0.0
 12
0.0
 22
1.0
 32
0.0
  0
ENDTAB
  0
TABLE
  2
APPID
  5
8
100
AcDbSymbolTable
 70
         1
  0
APPID
  5
16
100
AcDbSymbolTableRecord
100
AcDbRegAppTableRecord
  2
ACAD
 70
         0
  0
ENDTAB
  0
TABLE
  2
DIMSTYLE
  5
9
100
AcDbSymbolTable
 70
         1
  0
DIMSTYLE
105
18
100
AcDbSymbolTableRecord
100
AcDbDimStyleTableRecord
  2
STANDARD
 70
         0
  3

  4

  5

  6

  7

 40
1.0
 41
0.18
 42
0.0625
 43
0.38
 44
0.18
 45
0.0
 46
0.0
 47
0.0
 48
0.0
140
0.18
141
0.09
142
0.0
143
25.4
144
1.0
145
0.0
146
1.0
147
0.09
 71
         0
 72
         0
 73
         1
 74
         1
 75
         0
 76
         0
 77
         0
 78
         0
170
         0
171
         2
172
         0
173
         0
174
         0
175
         0
176
         0
177
         0
178
         0
270
         2
271
         4
272
         4
273
         2
274
         2
340
17
275
         0
280
         0
281
         0
282
         0
283
         1
284
         0
285
         0
286
         0
287
         0
288
         0
  0
ENDTAB
  0
TABLE
  2
BLOCK_RECORD
  5
1
100
AcDbSymbolTable
 70
         0
  0
BLOCK_RECORD
  5
A
100
AcDbSymbolTableRecord
100
AcDbBlockTableRecord
  2
*MODEL_SPACE
  0
BLOCK_RECORD
  5
B
100
AcDbSymbolTableRecord
100
AcDbBlockTableRecord
  2
*PAPER_SPACE
  0
ENDTAB
  0
ENDSEC
  0
SECTION
  2
BLOCKS
  0
BLOCK
  5
D
100
AcDbEntity
  8
0
100
AcDbBlockBegin
  2
*MODEL_SPACE
 70
         0
 10
0.0
 20
0.0
 30
0.0
  3
*MODEL_SPACE
  1

  0
ENDBLK
  5
E
100
AcDbEntity
  8
0
100
AcDbBlockEnd
  0
BLOCK
  5
F
100
AcDbEntity
 67
         1
  8
0
100
AcDbBlockBegin
  2
*PAPER_SPACE
 70
         0
 10
0.0
 20
0.0
 30
0.0
  3
*PAPER_SPACE
  1

  0
ENDBLK
  5
10
100
AcDbEntity
 67
         1
  8
0
100
AcDbBlockEnd
  0
ENDSEC
  0
SECTION
  2
ENTITIES
  0
LINE
  5
EB
100
AcDbEntity
  8
BT-4375-02_PROFILE_TEMPLATE
  6
DASHED
 62
        15
100
AcDbLine
 10
-0.1715973993
 20
-0.2487481728
 30
0.0
 11
-1.116074148
 21
-0.2487481728
 31
0.0
  0
LINE
  5
EC
100
AcDbEntity
  8
BT-4375-02_PROFILE_TEMPLATE
  6
DASHED
 62
        15
100
AcDbLine
 10
0.5
 20
0.6262518272
 30
0.0
 11
-0.9617880399
 21
0.6262518272
 31
0.0
  0
LINE
  5
ED
100
AcDbEntity
  8
BT-4375-02_PROFILE_TEMPLATE
  6
CONTINUOUS
 62
       121
100
AcDbLine
 10
0.2160863014
 20
-1.0439080358
 30
0.0
 11
0.3045415313
 21
-0.5422534989
 31
0.0
  0
ARC
  5
EE
100
AcDbEntity
  8
BT-4375-02_PROFILE_TEMPLATE
  6
CONTINUOUS
 62
       121
100
AcDbCircle
 10
0.2799213374
 20
-0.5379122944
 30
0.0
 40
0.025
100
AcDbArc
 50
350.0
 51
428.0
  0
LINE
  5
EF
100
AcDbEntity
  8
BT-4375-02_PROFILE_TEMPLATE
  6
CONTINUOUS
 62
       121
100
AcDbLine
 10
0.2892865023
 20
-0.5147326981
 30
0.0
 11
-0.0377402642
 21
-0.3826053079
 31
0.0
  0
LINE
  5
F0
100
AcDbEntity
  8
BT-4375-02_PROFILE_TEMPLATE
  6
CONTINUOUS
 62
       121
100
AcDbLine
 10
-0.0377402642
 20
-0.3826053079
 30
0.0
 11
-0.2082246926
 21
-0.2121208795
 31
0.0
  0
ARC
  5
F1
100
AcDbEntity
  8
BT-4375-02_PROFILE_TEMPLATE
  6
CONTINUOUS
 62
       121
100
AcDbCircle
 10
-0.1212505585
 20
-0.1251467454
 30
0.0
 40
0.123
100
AcDbArc
 50
117.0046184668
 51
225.0
  0
LINE
  5
F2
100
AcDbEntity
  8
BT-4375-02_PROFILE_TEMPLATE
  6
CONTINUOUS
 62
       121
100
AcDbLine
 10
-0.1735763128
 20
-0.0137615643
 30
0.0
 11
-0.1771002239
 21
-0.0155574445
 31
0.0
  0
ARC
  5
F3
100
AcDbEntity
  8
BT-4375-02_PROFILE_TEMPLATE
  6
CONTINUOUS
 62
       121
100
AcDbCircle
 10
-0.1917388056
 20
0.0218772327
 30
0.0
 40
0.04
100
AcDbArc
 50
297.0046184668
 51
409.4985543791
  0
LINE
  5
F4
100
AcDbEntity
  8
BT-4375-02_PROFILE_TEMPLATE
  6
CONTINUOUS
 62
       121
100
AcDbLine
 10
-0.1968497796
 20
0.0788472536
 30
0.0
 11
-0.1657601163
 21
0.0522928159
 31
0.0
  0
ARC
  5
F5
100
AcDbEntity
  8
BT-4375-02_PROFILE_TEMPLATE
  6
CONTINUOUS
 62
       121
100
AcDbCircle
 10
-0.0981307601
 20
0.1944264696
 30
0.0
 40
0.152
100
AcDbArc
 50
149.7789936706
 51
229.4985543791
  0
ARC
  5
F6
100
AcDbEntity
  8
BT-4375-02_PROFILE_TEMPLATE
  6
CONTINUOUS
 62
       121
100
AcDbCircle
 10
-0.0246830827
 20
0.1516428432
 30
0.0
 40
0.237
100
AcDbArc
 50
116.9676540345
 51
149.7789936706
  0
ARC
  5
F7
100
AcDbEntity
  8
BT-4375-02_PROFILE_TEMPLATE
  6
CONTINUOUS
 62
       121
100
AcDbCircle
 10
0.5834435413
 20
-1.0435404102
 30
0.0
 40
1.578
100
AcDbArc
 50
94.4738113527
 51
116.9676540345
  0
LINE
  5
F8
100
AcDbEntity
  8
BT-4375-02_PROFILE_TEMPLATE
  6
CONTINUOUS
 62
       121
100
AcDbLine
 10
0.4631201367
 20
0.5298679843
 30
0.0
 11
0.460354147
 21
0.5296515682
 31
0.0
  0
ARC
  5
F9
100
AcDbEntity
  8
BT-4375-02_PROFILE_TEMPLATE
  6
CONTINUOUS
 62
       121
100
AcDbCircle
 10
0.46
 20
0.569746108
 30
0.0
 40
0.04
100
AcDbArc
 50
274.4738113527
 51
360.0
  0
LINE
  5
FA
100
AcDbEntity
  8
BT-4375-02_PROFILE_TEMPLATE
  6
CONTINUOUS
 62
       121
100
AcDbLine
 10
0.5
 20
0.569746108
 30
0.0
 11
0.5
 21
1.1907401956
 31
0.0
  0
LINE
  5
FB
100
AcDbEntity
  8
BT-4375-02_PROFILE_TEMPLATE
  6
CONTINUOUS
 62
       121
100
AcDbLine
 10
-1.2118849405
 20
-0.7921181782
 30
0.0
 11
-0.8211765407
 21
1.423699266
 31
0.0
  0
LINE
  5
FC
100
AcDbEntity
  8
BT-4375-02_PROFILE_TEMPLATE
  6
CONTINUOUS
 62
       121
100
AcDbLine
 10
0.2160863014
 20
-1.0439080358
 30
0.0
 11
-1.2118849405
 21
-0.7921181782
 31
0.0
  0
LINE
  5
FD
100
AcDbEntity
  8
BT-4375-02_PROFILE_TEMPLATE
  6
CONTINUOUS
 62
       121
100
AcDbLine
 10
0.5
 20
1.1907401956
 30
0.0
 11
-0.8211765407
 21
1.423699266
 31
0.0
  0
LINE
  5
FE
100
AcDbEntity
  8
TS6-FBB_SANDING_HEAD
  6
CONTINUOUS
 62
       221
100
AcDbLine
 10
-3.3346307601
 20
1.4982518272
 30
0.0
 11
-3.3346307601
 21
0.8432518272
 31
0.0
  0
LINE
  5
FF
100
AcDbEntity
  8
TS6-FBB_SANDING_HEAD
  6
CONTINUOUS
 62
       163
100
AcDbLine
 10
-3.5039654921
 20
-0.8137481728
 30
0.0
 11
-3.5039654921
 21
-0.7786481728
 31
0.0
  0
LINE
  5
100
100
AcDbEntity
  8
TS6-FBB_SANDING_HEAD
  6
CONTINUOUS
 62
       163
100
AcDbLine
 10
-3.4016571053
 20
-0.8137481728
 30
0.0
 11
-3.5039654921
 21
-0.8137481728
 31
0.0
  0
LINE
  5
101
100
AcDbEntity
  8
TS6-FBB_SANDING_HEAD
  6
CONTINUOUS
 62
       163
100
AcDbLine
 10
-3.3921016935
 20
-0.8137481728
 30
0.0
 11
-3.4016571053
 21
-0.8137481728
 31
0.0
  0
LINE
  5
102
100
AcDbEntity
  8
TS6-FBB_SANDING_HEAD
  6
CONTINUOUS
 62
       163
100
AcDbLine
 10
-3.4016571053
 20
-0.8137481728
 30
0.0
 11
-3.4016571053
 21
-0.6887481728
 31
0.0
  0
LINE
  5
103
100
AcDbEntity
  8
TS6-FBB_SANDING_HEAD
  6
CONTINUOUS
 62
       163
100
AcDbLine
 10
-3.3468919116
 20
-0.5067481728
 30
0.0
 11
-3.3356307601
 21
-0.5067481728
 31
0.0
  0
LINE
  5
104
100
AcDbEntity
  8
TS6-FBB_SANDING_HEAD
  6
CONTINUOUS
 62
       163
100
AcDbLine
 10
-3.3328635677
 20
-0.6517481728
 30
0.0
 11
-3.3328635677
 21
-0.6887481728
 31
0.0
  0
LINE
  5
105
100
AcDbEntity
  8
TS6-FBB_SANDING_HEAD
  6
CONTINUOUS
 62
       163
100
AcDbLine
 10
-3.4016571053
 20
-0.6887481728
 30
0.0
 11
-3.3328635677
 21
-0.6887481728
 31
0.0
  0
LINE
  5
106
100
AcDbEntity
  8
TS6-FBB_SANDING_HEAD
  6
CONTINUOUS
 62
       163
100
AcDbLine
 10
-3.3468919116
 20
0.5362518272
 30
0.0
 11
-3.3356307601
 21
0.5362518272
 31
0.0
  0
LINE
  5
107
100
AcDbEntity
  8
TS6-FBB_SANDING_HEAD
  6
CONTINUOUS
 62
       163
100
AcDbLine
 10
-3.4016571053
 20
0.7182518272
 30
0.0
 11
-3.4016571053
 21
0.8432518272
 31
0.0
  0
LINE
  5
108
100
AcDbEntity
  8
TS6-FBB_SANDING_HEAD
  6
CONTINUOUS
 62
       163
100
AcDbLine
 10
-3.3356307601
 20
0.7182518272
 30
0.0
 11
-3.4016571053
 21
0.7182518272
 31
0.0
  0
LINE
  5
109
100
AcDbEntity
  8
TS6-FBB_SANDING_HEAD
  6
CONTINUOUS
 62
       131
100
AcDbLine
 10
-3.3355560002
 20
-0.4207481728
 30
0.0
 11
-3.3686307601
 21
-0.4207481728
 31
0.0
  0
LINE
  5
10A
100
AcDbEntity
  8
TS6-FBB_SANDING_HEAD
  6
CONTINUOUS
 62
       131
100
AcDbLine
 10
-3.3355560002
 20
-0.5457481728
 30
0.0
 11
-3.3686307601
 21
-0.5457481728
 31
0.0
  0
LINE
  5
10B
100
AcDbEntity
  8
TS6-FBB_SANDING_HEAD
  6
CONTINUOUS
 62
       131
100
AcDbLine
 10
-3.5039647609
 20
-0.7957481728
 30
0.0
 11
-3.5129683274
 21
-0.7957481728
 31
0.0
  0
LINE
  5
10C
100
AcDbEntity
  8
TS6-FBB_SANDING_HEAD
  6
CONTINUOUS
 62
       121
100
AcDbLine
 10
-3.5796307601
 20
0.938713452
 30
0.0
 11
-3.5044823566
 21
0.938713452
 31
0.0
  0
LINE
  5
10D
100
AcDbEntity
  8
TS6-FBB_SANDING_HEAD
  6
CONTINUOUS
 62
       121
100
AcDbLine
 10
-3.5044823566
 20
1.0732518272
 30
0.0
 11
-3.5796307601
 21
1.0732518272
 31
0.0
  0
LINE
  5
10E
100
AcDbEntity
  8
TS6-FBB_SANDING_HEAD
  6
CONTINUOUS
 62
       121
100
AcDbLine
 10
-3.9671290493
 20
-0.5207481728
 30
0.0
 11
-3.9676307601
 21
-0.5207481728
 31
0.0
  0
LINE
  5
10F
100
AcDbEntity
  8
TS6-FBB_SANDING_HEAD
  6
CONTINUOUS
 62
       121
100
AcDbLine
 10
-3.3686307601
 20
-0.3707481728
 30
0.0
 11
-3.3355560002
 21
-0.3707481728
 31
0.0
  0
LINE
  5
110
100
AcDbEntity
  8
TS6-FBB_SANDING_HEAD
  6
CONTINUOUS
 62
       221
100
AcDbLine
 10
-3.5046307601
 20
0.8432518272
 30
0.0
 11
-3.3346307601
 21
0.8432518272
 31
0.0
  0
LINE
  5
111
100
AcDbEntity
  8
TS6-FBB_SANDING_HEAD
  6
CONTINUOUS
 62
       221
100
AcDbLine
 10
-3.5046307601
 20
1.4982518272
 30
0.0
 11
-3.5046307601
 21
0.8432518272
 31
0.0
  0
LINE
  5
112
100
AcDbEntity
  8
TS6-FBB_SANDING_HEAD
  6
CONTINUOUS
 62
       221
100
AcDbLine
 10
-3.3346307601
 20
1.4982518272
 30
0.0
 11
-3.5046307601
 21
1.4982518272
 31
0.0
  0
LINE
  5
113
100
AcDbEntity
  8
TS6-FBB_SANDING_HEAD
  6
CONTINUOUS
 62
       221
100
AcDbLine
 10
-3.3346307601
 20
0.8432518272
 30
0.0
 11
-3.3346307601
 21
1.4982518272
 31
0.0
  0
LINE
  5
114
100
AcDbEntity
  8
TS6-FBB_SANDING_HEAD
  6
CONTINUOUS
 62
         5
100
AcDbLine
 10
-3.3356307601
 20
1.4982518272
 30
0.0
 11
-3.3356307601
 21
-0.6517481728
 31
0.0
  0
LINE
  5
115
100
AcDbEntity
  8
TS6-FBB_SANDING_HEAD
  6
CONTINUOUS
 62
         5
100
AcDbLine
 10
-3.4921307601
 20
1.4982518272
 30
0.0
 11
-3.3356307601
 21
1.4982518272
 31
0.0
  0
LINE
  5
116
100
AcDbEntity
  8
TS6-FBB_SANDING_HEAD
  6
CONTINUOUS
 62
         5
100
AcDbLine
 10
-3.4921307601
 20
1.7482518272
 30
0.0
 11
-3.4921307601
 21
1.4982518272
 31
0.0
  0
LINE
  5
117
100
AcDbEntity
  8
TS6-FBB_SANDING_HEAD
  6
CONTINUOUS
 62
         5
100
AcDbLine
 10
-3.1371307601
 20
1.7482518272
 30
0.0
 11
-3.4921307601
 21
1.7482518272
 31
0.0
  0
ARC
  5
118
100
AcDbEntity
  8
TS6-FBB_SANDING_HEAD
  6
CONTINUOUS
 62
         5
100
AcDbCircle
 10
3.1371307601
 20
1.7682518272
 30
0.0
 40
0.02
210
0.0
220
0.0
230
-1.0
100
AcDbArc
 50
180.0
 51
270.0
  0
LINE
  5
119
100
AcDbEntity
  8
TS6-FBB_SANDING_HEAD
  6
CONTINUOUS
 62
         5
100
AcDbLine
 10
-3.1171307601
 20
2.9782518272
 30
0.0
 11
-3.1171307601
 21
1.7682518272
 31
0.0
  0
LINE
  5
11A
100
AcDbEntity
  8
TS6-FBB_SANDING_HEAD
  6
CONTINUOUS
 62
         5
100
AcDbLine
 10
-3.0971307601
 20
2.9982518272
 30
0.0
 11
-3.1171307601
 21
2.9782518272
 31
0.0
  0
LINE
  5
11B
100
AcDbEntity
  8
TS6-FBB_SANDING_HEAD
  6
CONTINUOUS
 62
         5
100
AcDbLine
 10
-2.3871307601
 20
2.9982518272
 30
0.0
 11
-3.0971307601
 21
2.9982518272
 31
0.0
  0
LINE
  5
11C
100
AcDbEntity
  8
TS6-FBB_SANDING_HEAD
  6
CONTINUOUS
 62
         5
100
AcDbLine
 10
-2.3671307601
 20
2.9782518272
 30
0.0
 11
-2.3871307601
 21
2.9982518272
 31
0.0
  0
LINE
  5
11D
100
AcDbEntity
  8
TS6-FBB_SANDING_HEAD
  6
CONTINUOUS
 62
         5
100
AcDbLine
 10
-2.3671307601
 20
1.7682518272
 30
0.0
 11
-2.3671307601
 21
2.9782518272
 31
0.0
  0
ARC
  5
11E
100
AcDbEntity
  8
TS6-FBB_SANDING_HEAD
  6
CONTINUOUS
 62
         5
100
AcDbCircle
 10
2.3471307601
 20
1.7682518272
 30
0.0
 40
0.02
210
0.0
220
0.0
230
-1.0
100
AcDbArc
 50
270.0
 51
360.0
  0
LINE
  5
11F
100
AcDbEntity
  8
TS6-FBB_SANDING_HEAD
  6
CONTINUOUS
 62
         5
100
AcDbLine
 10
-1.9921307601
 20
1.7482518272
 30
0.0
 11
-2.3471307601
 21
1.7482518272
 31
0.0
  0
LINE
  5
120
100
AcDbEntity
  8
TS6-FBB_SANDING_HEAD
  6
CONTINUOUS
 62
       131
100
AcDbLine
 10
-3.3196307601
 20
-0.6887481728
 30
0.0
 11
-3.3196307601
 21
-0.8137481728
 31
0.0
  0
LINE
  5
121
100
AcDbEntity
  8
TS6-FBB_SANDING_HEAD
  6
CONTINUOUS
 62
       131
100
AcDbLine
 10
-3.3921307601
 20
-0.6887481728
 30
0.0
 11
-3.3196307601
 21
-0.6887481728
 31
0.0
  0
LINE
  5
122
100
AcDbEntity
  8
TS6-FBB_SANDING_HEAD
  6
CONTINUOUS
 62
       131
100
AcDbLine
 10
-3.3921307601
 20
-0.8137481728
 30
0.0
 11
-3.3921307601
 21
-0.6887481728
 31
0.0
  0
LINE
  5
123
100
AcDbEntity
  8
TS6-FBB_SANDING_HEAD
  6
CONTINUOUS
 62
       131
100
AcDbLine
 10
-3.3196307601
 20
-0.8137481728
 30
0.0
 11
-3.3921307601
 21
-0.8137481728
 31
0.0
  0
LINE
  5
124
100
AcDbEntity
  8
TS6-FBB_SANDING_HEAD
  6
CONTINUOUS
 62
       131
100
AcDbLine
 10
-3.5129683274
 20
-0.7957481728
 30
0.0
 11
-3.3686307601
 21
-0.5457481728
 31
0.0
  0
LINE
  5
125
100
AcDbEntity
  8
TS6-FBB_SANDING_HEAD
  6
CONTINUOUS
 62
       131
100
AcDbLine
 10
-5.0691307601
 20
-0.7957481728
 30
0.0
 11
-3.5129683274
 21
-0.7957481728
 31
0.0
  0
LINE
  5
126
100
AcDbEntity
  8
TS6-FBB_SANDING_HEAD
  6
CONTINUOUS
 62
       131
100
AcDbLine
 10
-5.0841307601
 20
-0.7807481728
 30
0.0
 11
-5.0691307601
 21
-0.7957481728
 31
0.0
  0
LINE
  5
127
100
AcDbEntity
  8
TS6-FBB_SANDING_HEAD
  6
CONTINUOUS
 62
       131
100
AcDbLine
 10
-5.0841307601
 20
-0.5607481728
 30
0.0
 11
-5.0841307601
 21
-0.7807481728
 31
0.0
  0
LINE
  5
128
100
AcDbEntity
  8
TS6-FBB_SANDING_HEAD
  6
CONTINUOUS
 62
       131
100
AcDbLine
 10
-5.0691307601
 20
-0.5457481728
 30
0.0
 11
-5.0841307601
 21
-0.5607481728
 31
0.0
  0
LINE
  5
129
100
AcDbEntity
  8
TS6-FBB_SANDING_HEAD
  6
CONTINUOUS
 62
       131
100
AcDbLine
 10
-3.9671307601
 20
-0.5457481728
 30
0.0
 11
-5.0691307601
 21
-0.5457481728
 31
0.0
  0
LINE
  5
12A
100
AcDbEntity
  8
TS6-FBB_SANDING_HEAD
  6
CONTINUOUS
 62
       131
100
AcDbLine
 10
-3.9671307601
 20
-0.4507481728
 30
0.0
 11
-3.9671307601
 21
-0.5457481728
 31
0.0
  0
LINE
  5
12B
100
AcDbEntity
  8
TS6-FBB_SANDING_HEAD
  6
CONTINUOUS
 62
       131
100
AcDbLine
 10
-3.9371307601
 20
-0.4207481728
 30
0.0
 11
-3.9671307601
 21
-0.4507481728
 31
0.0
  0
LINE
  5
12C
100
AcDbEntity
  8
TS6-FBB_SANDING_HEAD
  6
CONTINUOUS
 62
       131
100
AcDbLine
 10
-3.3686307601
 20
-0.4207481728
 30
0.0
 11
-3.9371307601
 21
-0.4207481728
 31
0.0
  0
LINE
  5
12D
100
AcDbEntity
  8
TS6-FBB_SANDING_HEAD
  6
CONTINUOUS
 62
       131
100
AcDbLine
 10
-3.3686307601
 20
-0.5457481728
 30
0.0
 11
-3.3686307601
 21
-0.4207481728
 31
0.0
  0
LINE
  5
12E
100
AcDbEntity
  8
TS6-FBB_SANDING_HEAD
  6
CONTINUOUS
 62
       121
100
AcDbLine
 10
-5.9731010487
 20
0.8232518272
 30
0.0
 11
-5.2091307601
 21
0.8232518272
 31
0.0
  0
LINE
  5
12F
100
AcDbEntity
  8
TS6-FBB_SANDING_HEAD
  6
CONTINUOUS
 62
       121
100
AcDbLine
 10
-5.9846307601
 20
1.0432518272
 30
0.0
 11
-5.9731010487
 21
0.8232518272
 31
0.0
  0
LINE
  5
130
100
AcDbEntity
  8
TS6-FBB_SANDING_HEAD
  6
CONTINUOUS
 62
       121
100
AcDbLine
 10
-5.9546307601
 20
1.0732518272
 30
0.0
 11
-5.9846307601
 21
1.0432518272
 31
0.0
  0
LINE
  5
131
100
AcDbEntity
  8
TS6-FBB_SANDING_HEAD
  6
CONTINUOUS
 62
       121
100
AcDbLine
 10
-3.5796307601
 20
1.0732518272
 30
0.0
 11
-5.9546307601
 21
1.0732518272
 31
0.0
  0
LINE
  5
132
100
AcDbEntity
  8
TS6-FBB_SANDING_HEAD
  6
CONTINUOUS
 62
       121
100
AcDbLine
 10
-3.5796307601
 20
0.938713452
 30
0.0
 11
-3.5796307601
 21
1.0732518272
 31
0.0
  0
LINE
  5
133
100
AcDbEntity
  8
TS6-FBB_SANDING_HEAD
  6
CONTINUOUS
 62
       121
100
AcDbLine
 10
-3.3686307601
 20
0.5732518272
 30
0.0
 11
-3.5796307601
 21
0.938713452
 31
0.0
  0
LINE
  5
134
100
AcDbEntity
  8
TS6-FBB_SANDING_HEAD
  6
CONTINUOUS
 62
       121
100
AcDbLine
 10
-3.3686307601
 20
-0.3707481728
 30
0.0
 11
-3.3686307601
 21
0.5732518272
 31
0.0
  0
LINE
  5
135
100
AcDbEntity
  8
TS6-FBB_SANDING_HEAD
  6
CONTINUOUS
 62
       121
100
AcDbLine
 10
-3.9676307601
 20
-0.3707481728
 30
0.0
 11
-3.3686307601
 21
-0.3707481728
 31
0.0
  0
LINE
  5
136
100
AcDbEntity
  8
TS6-FBB_SANDING_HEAD
  6
CONTINUOUS
 62
       121
100
AcDbLine
 10
-3.9676307601
 20
-0.5207481728
 30
0.0
 11
-3.9676307601
 21
-0.3707481728
 31
0.0
  0
LINE
  5
137
100
AcDbEntity
  8
TS6-FBB_SANDING_HEAD
  6
CONTINUOUS
 62
       121
100
AcDbLine
 10
-4.4571307601
 20
-0.5207481728
 30
0.0
 11
-3.9676307601
 21
-0.5207481728
 31
0.0
  0
LINE
  5
138
100
AcDbEntity
  8
TS6-FBB_SANDING_HEAD
  6
CONTINUOUS
 62
       121
100
AcDbLine
 10
-4.4571307601
 20
-0.4607481728
 30
0.0
 11
-4.4571307601
 21
-0.5207481728
 31
0.0
  0
LINE
  5
139
100
AcDbEntity
  8
TS6-FBB_SANDING_HEAD
  6
CONTINUOUS
 62
       121
100
AcDbLine
 10
-5.0841307601
 20
-0.4607481728
 30
0.0
 11
-4.4571307601
 21
-0.4607481728
 31
0.0
  0
LINE
  5
13A
100
AcDbEntity
  8
TS6-FBB_SANDING_HEAD
  6
CONTINUOUS
 62
       121
100
AcDbLine
 10
-5.0841307601
 20
0.6982518272
 30
0.0
 11
-5.0841307601
 21
-0.4607481728
 31
0.0
  0
ARC
  5
13B
100
AcDbEntity
  8
TS6-FBB_SANDING_HEAD
  6
CONTINUOUS
 62
       121
100
AcDbCircle
 10
5.2091307601
 20
0.6982518272
 30
0.0
 40
0.125
210
0.0
220
0.0
230
-1.0
100
AcDbArc
 50
90.0
 51
180.0
  0
LINE
  5
13C
100
AcDbEntity
  8
ORIGINAL_DXF_FILE_DATA
  6
CONTINUOUS
 62
       252
100
AcDbLine
 10
-2.1651904892
 20
-3.7926574316
 30
0.0
 11
-2.1651904892
 21
-5.3551574316
 31
0.0
  0
LINE
  5
13D
100
AcDbEntity
  8
ORIGINAL_DXF_FILE_DATA
  6
CONTINUOUS
 62
       252
100
AcDbLine
 10
4.7098095108
 20
-5.3551574316
 30
0.0
 11
-3.1651904892
 21
-5.3551574316
 31
0.0
  0
LINE
  5
13E
100
AcDbEntity
  8
ORIGINAL_DXF_FILE_DATA
  6
CONTINUOUS
 62
       252
100
AcDbLine
 10
3.1901586806
 20
4.0198425684
 30
0.0
 11
3.1901586806
 21
3.6448425684
 31
0.0
  0
LINE
  5
13F
100
AcDbEntity
  8
ORIGINAL_DXF_FILE_DATA
  6
CONTINUOUS
 62
       252
100
AcDbLine
 10
3.9598095108
 20
-3.7926574316
 30
0.0
 11
3.9598095108
 21
-5.3551574316
 31
0.0
  0
LINE
  5
140
100
AcDbEntity
  8
ORIGINAL_DXF_FILE_DATA
  6
CONTINUOUS
 62
       252
100
AcDbLine
 10
3.2098095108
 20
-3.7926574316
 30
0.0
 11
3.2098095108
 21
-5.3551574316
 31
0.0
  0
LINE
  5
141
100
AcDbEntity
  8
ORIGINAL_DXF_FILE_DATA
  6
CONTINUOUS
 62
       252
100
AcDbLine
 10
1.7098095108
 20
-3.7926574316
 30
0.0
 11
1.7098095108
 21
-5.3551574316
 31
0.0
  0
LINE
  5
142
100
AcDbEntity
  8
ORIGINAL_DXF_FILE_DATA
  6
CONTINUOUS
 62
       252
100
AcDbLine
 10
2.4598095108
 20
-3.7926574316
 30
0.0
 11
2.4598095108
 21
-5.3551574316
 31
0.0
  0
LINE
  5
143
100
AcDbEntity
  8
ORIGINAL_DXF_FILE_DATA
  6
CONTINUOUS
 62
       252
100
AcDbLine
 10
-1.0401904892
 20
-3.7926574316
 30
0.0
 11
-1.0401904892
 21
-5.3551574316
 31
0.0
  0
LINE
  5
144
100
AcDbEntity
  8
ORIGINAL_DXF_FILE_DATA
  6
CONTINUOUS
 62
       252
100
AcDbLine
 10
4.7098095108
 20
-5.0426574316
 30
0.0
 11
-3.1651904892
 21
-5.0426574316
 31
0.0
  0
LINE
  5
145
100
AcDbEntity
  8
ORIGINAL_DXF_FILE_DATA
  6
CONTINUOUS
 62
       252
100
AcDbLine
 10
4.7098095108
 20
-4.7301574316
 30
0.0
 11
-3.1651904892
 21
-4.7301574316
 31
0.0
  0
LINE
  5
146
100
AcDbEntity
  8
ORIGINAL_DXF_FILE_DATA
  6
CONTINUOUS
 62
       252
100
AcDbLine
 10
4.7098095108
 20
-4.4176574316
 30
0.0
 11
-3.1651904892
 21
-4.4176574316
 31
0.0
  0
LINE
  5
147
100
AcDbEntity
  8
ORIGINAL_DXF_FILE_DATA
  6
CONTINUOUS
 62
       252
100
AcDbLine
 10
4.7098095108
 20
-4.1051574316
 30
0.0
 11
-3.1651904892
 21
-4.1051574316
 31
0.0
  0
LINE
  5
148
100
AcDbEntity
  8
ORIGINAL_DXF_FILE_DATA
  6
CONTINUOUS
 62
       252
100
AcDbLine
 10
4.7098095108
 20
-3.7926574316
 30
0.0
 11
-3.1651904892
 21
-3.7926574316
 31
0.0
  0
LINE
  5
149
100
AcDbEntity
  8
ORIGINAL_DXF_FILE_DATA
  6
CONTINUOUS
 62
       252
100
AcDbLine
 10
1.5848095108
 20
4.0198425684
 30
0.0
 11
1.5848095108
 21
3.6448425684
 31
0.0
  0
LINE
  5
14A
100
AcDbEntity
  8
ORIGINAL_DXF_FILE_DATA
  6
CONTINUOUS
 62
       252
100
AcDbLine
 10
0.8348095108
 20
4.0198425684
 30
0.0
 11
0.8348095108
 21
3.6448425684
 31
0.0
  0
LINE
  5
14B
100
AcDbEntity
  8
ORIGINAL_DXF_FILE_DATA
  6
CONTINUOUS
 62
       252
100
AcDbLine
 10
-0.4151904892
 20
4.0198425684
 30
0.0
 11
-0.4151904892
 21
3.6448425684
 31
0.0
  0
LINE
  5
14C
100
AcDbEntity
  8
ORIGINAL_DXF_FILE_DATA
  6
CONTINUOUS
 62
       252
100
AcDbLine
 10
0.3348095108
 20
4.7698425684
 30
0.0
 11
0.3348095108
 21
4.0198425684
 31
0.0
  0
LINE
  5
14D
100
AcDbEntity
  8
ORIGINAL_DXF_FILE_DATA
  6
CONTINUOUS
 62
       252
100
AcDbLine
 10
4.7098095108
 20
3.6448425684
 30
0.0
 11
-3.1651904892
 21
3.6448425684
 31
0.0
  0
LINE
  5
14E
100
AcDbEntity
  8
ORIGINAL_DXF_FILE_DATA
  6
CONTINUOUS
 62
       252
100
AcDbLine
 10
4.7098095108
 20
4.0198425684
 30
0.0
 11
-3.1651904892
 21
4.0198425684
 31
0.0
  0
LINE
  5
14F
100
AcDbEntity
  8
ORIGINAL_DXF_FILE_DATA
  6
CONTINUOUS
 62
       252
100
AcDbLine
 10
4.7098095108
 20
4.7698425684
 30
0.0
 11
-3.1651904892
 21
4.7698425684
 31
0.0
  0
LINE
  5
150
100
AcDbEntity
  8
ORIGINAL_DXF_FILE_DATA
  6
CONTINUOUS
 62
       252
100
AcDbLine
 10
4.7098095108
 20
-5.3551574316
 30
0.0
 11
4.7098095108
 21
4.7698425684
 31
0.0
  0
ARC
  5
151
100
AcDbEntity
  8
PATTERN__1803
  6
CONTINUOUS
 62
         6
100
AcDbCircle
 10
0.5834435413
 20
-1.0435404102
 30
0.0
 40
1.578
100
AcDbArc
 50
94.4738113527
 51
116.9676540345
  0
LINE
  5
152
100
AcDbEntity
  8
PATTERN__1803
  6
CONTINUOUS
 62
         3
100
AcDbLine
 10
0.5
 20
0.569746108
 30
0.0
 11
0.5
 21
0.6262518272
 31
0.0
  0
ARC
  5
153
100
AcDbEntity
  8
PATTERN__1803
  6
CONTINUOUS
 62
         6
100
AcDbCircle
 10
-0.1212505585
 20
-0.1251467454
 30
0.0
 40
0.123
100
AcDbArc
 50
117.0046184668
 51
225.0
  0
ARC
  5
154
100
AcDbEntity
  8
PATTERN__1803
  6
CONTINUOUS
 62
         6
100
AcDbCircle
 10
-0.0981307601
 20
0.1944264696
 30
0.0
 40
0.152
100
AcDbArc
 50
149.7789936706
 51
229.4985543791
  0
LINE
  5
155
100
AcDbEntity
  8
PATTERN__1803
  6
DASHED
 62
        15
100
AcDbLine
 10
0.8748692399
 20
0.6262518272
 30
0.0
 11
0.532
 21
0.6262518272
 31
0.0
  0
LINE
  5
156
100
AcDbEntity
  8
PATTERN__1803
  6
DASHED
 62
        15
100
AcDbLine
 10
0.8748692399
 20
-0.2487481728
 30
0.0
 11
-0.1395973993
 21
-0.2487481728
 31
0.0
  0
ARC
  5
157
100
AcDbEntity
  8
PATTERN__1803
  6
CONTINUOUS
 62
         6
100
AcDbCircle
 10
-0.0246830827
 20
0.1516428432
 30
0.0
 40
0.237
100
AcDbArc
 50
116.9676540345
 51
149.7789936706
  0
LINE
  5
158
100
AcDbEntity
  8
PATTERN__1803
  6
CONTINUOUS
 62
         3
100
AcDbLine
 10
-0.1968497796
 20
0.0788472536
 30
0.0
 11
-0.1657601163
 21
0.0522928159
 31
0.0
  0
LINE
  5
159
100
AcDbEntity
  8
PATTERN__1803
  6
CONTINUOUS
 62
         3
100
AcDbLine
 10
0.4631201367
 20
0.5298679843
 30
0.0
 11
0.460354147
 21
0.5296515682
 31
0.0
  0
ARC
  5
15A
100
AcDbEntity
  8
PATTERN__1803
  6
CONTINUOUS
 62
         6
100
AcDbCircle
 10
0.46
 20
0.569746108
 30
0.0
 40
0.04
100
AcDbArc
 50
274.4738113527
 51
360.0
  0
LINE
  5
15B
100
AcDbEntity
  8
PATTERN__1803
  6
CONTINUOUS
 62
         3
100
AcDbLine
 10
-0.1735763128
 20
-0.0137615643
 30
0.0
 11
-0.1771002239
 21
-0.0155574445
 31
0.0
  0
ARC
  5
15C
100
AcDbEntity
  8
PATTERN__1803
  6
CONTINUOUS
 62
         6
100
AcDbCircle
 10
-0.1917388056
 20
0.0218772327
 30
0.0
 40
0.04
100
AcDbArc
 50
297.0046184668
 51
409.4985543791
  0
LINE
  5
15D
100
AcDbEntity
  8
PATTERN__1803
  6
CONTINUOUS
 62
         3
100
AcDbLine
 10
-0.1715973993
 20
-0.2487481728
 30
0.0
 11
-0.2082246926
 21
-0.2121208795
 31
0.0
  0
LINE
  5
15E
100
AcDbEntity
  8
PATTERN__1803
  6
CONTINUOUS
 62
         8
100
AcDbLine
 10
-0.2501307601
 20
0.1444264696
 30
0.0
 11
-0.2501307601
 21
0.2444264696
 31
0.0
  0
CIRCLE
  5
15F
100
AcDbEntity
  8
PATTERN__1803
  6
CONTINUOUS
 62
         8
100
AcDbCircle
 10
0.46
 20
0.569746108
 30
0.0
 40
0.008
  0
CIRCLE
  5
160
100
AcDbEntity
  8
PATTERN__1803
  6
CONTINUOUS
 62
         8
100
AcDbCircle
 10
0.5834435413
 20
-1.0435404102
 30
0.0
 40
0.008
  0
CIRCLE
  5
161
100
AcDbEntity
  8
PATTERN__1803
  6
CONTINUOUS
 62
         8
100
AcDbCircle
 10
-0.0246830827
 20
0.1516428432
 30
0.0
 40
0.008
  0
CIRCLE
  5
162
100
AcDbEntity
  8
PATTERN__1803
  6
CONTINUOUS
 62
         8
100
AcDbCircle
 10
-0.0981307601
 20
0.1944264696
 30
0.0
 40
0.008
  0
CIRCLE
  5
163
100
AcDbEntity
  8
PATTERN__1803
  6
CONTINUOUS
 62
         8
100
AcDbCircle
 10
-0.1917388056
 20
0.0218772327
 30
0.0
 40
0.008
  0
CIRCLE
  5
164
100
AcDbEntity
  8
PATTERN__1803
  6
CONTINUOUS
 62
         8
100
AcDbCircle
 10
-0.1212505585
 20
-0.1251467454
 30
0.0
 40
0.008
  0
LINE
  5
165
100
AcDbEntity
  8
CK_LEVEL_46
  6
CONTINUOUS
 62
         5
100
AcDbLine
 10
-4.0911410759
 20
3.4271101325
 30
0.0
 11
-4.2526028427
 21
3.1965188321
 31
0.0
  0
LINE
  5
166
100
AcDbEntity
  8
CK_LEVEL_46
  6
CONTINUOUS
 62
         5
100
AcDbLine
 10
-4.7008528277
 20
2.5563515095
 30
0.0
 11
-6.4415509218
 21
3.7752014367
 31
0.0
  0
LINE
  5
167
100
AcDbEntity
  8
CK_LEVEL_46
  6
CONTINUOUS
 62
         5
100
AcDbLine
 10
-4.0911410759
 20
3.4271101325
 30
0.0
 11
-5.83183917
 21
4.6459600598
 31
0.0
  0
LINE
  5
168
100
AcDbEntity
  8
CK_LEVEL_46
  6
CONTINUOUS
 62
         5
100
AcDbLine
 10
-5.6348156641
 20
4.927338787
 30
0.0
 11
-5.83183917
 21
4.6459600598
 31
0.0
  0
LINE
  5
169
100
AcDbEntity
  8
CK_LEVEL_46
  6
CONTINUOUS
 62
         5
100
AcDbLine
 10
-5.6348156641
 20
4.927338787
 30
0.0
 11
-6.1467856918
 21
5.2858240597
 31
0.0
  0
LINE
  5
16A
100
AcDbEntity
  8
CK_LEVEL_46
  6
CONTINUOUS
 62
         5
100
AcDbLine
 10
-6.6385744277
 20
3.4938227095
 30
0.0
 11
-7.1505444554
 21
3.8523079822
 31
0.0
  0
LINE
  5
16B
100
AcDbEntity
  8
CK_LEVEL_46
  6
CONTINUOUS
 62
         5
100
AcDbLine
 10
-5.9316945282
 20
5.5930060763
 30
0.0
 11
-6.1467856918
 21
5.2858240597
 31
0.0
  0
LINE
  5
16C
100
AcDbEntity
  8
CK_LEVEL_46
  6
CONTINUOUS
 62
         5
100
AcDbLine
 10
-7.365635619
 20
3.5451259656
 30
0.0
 11
-7.4680296246
 21
3.6168230202
 31
0.0
  0
LINE
  5
16D
100
AcDbEntity
  8
CK_LEVEL_46
  6
CONTINUOUS
 62
         5
100
AcDbLine
 10
-5.9316945282
 20
5.5930060763
 30
0.0
 11
-6.0340885337
 21
5.6647031309
 31
0.0
  0
LINE
  5
16E
100
AcDbEntity
  8
CK_LEVEL_46
  6
CONTINUOUS
 62
         5
100
AcDbLine
 10
-6.4436645558
 20
5.9514913491
 30
0.0
 11
-7.8776056467
 21
3.9036112383
 31
0.0
  0
LINE
  5
16F
100
AcDbEntity
  8
CK_LEVEL_46
  6
CONTINUOUS
 62
         5
100
AcDbLine
 10
-7.4680296246
 20
3.6168230202
 30
0.0
 11
-7.4987471375
 21
3.7910306926
 31
0.0
  0
LINE
  5
170
100
AcDbEntity
  8
CK_LEVEL_46
  6
CONTINUOUS
 62
         5
100
AcDbLine
 10
-7.7752116412
 20
3.8319141838
 30
0.0
 11
-7.6010039688
 21
3.8626316967
 31
0.0
  0
LINE
  5
171
100
AcDbEntity
  8
CK_LEVEL_46
  6
CONTINUOUS
 62
         5
100
AcDbLine
 10
-7.4987471375
 20
3.7910306926
 30
0.0
 11
-7.6010039688
 21
3.8626316967
 31
0.0
  0
LINE
  5
172
100
AcDbEntity
  8
CK_LEVEL_46
  6
CONTINUOUS
 62
         5
100
AcDbLine
 10
-7.7752116412
 20
3.8319141838
 30
0.0
 11
-7.8776056467
 21
3.9036112383
 31
0.0
  0
LINE
  5
173
100
AcDbEntity
  8
CK_LEVEL_46
  6
CONTINUOUS
 62
         5
100
AcDbLine
 10
-6.0340885337
 20
5.6647031309
 30
0.0
 11
-6.2082962061
 21
5.633985618
 31
0.0
  0
LINE
  5
174
100
AcDbEntity
  8
CK_LEVEL_46
  6
CONTINUOUS
 62
         5
100
AcDbLine
 10
-6.2082962061
 20
5.633985618
 30
0.0
 11
-6.3105530374
 21
5.7055866221
 31
0.0
  0
LINE
  5
175
100
AcDbEntity
  8
CK_LEVEL_46
  6
CONTINUOUS
 62
         5
100
AcDbLine
 10
-6.3412705503
 20
5.8797942945
 30
0.0
 11
-6.3105530374
 21
5.7055866221
 31
0.0
  0
LINE
  5
176
100
AcDbEntity
  8
CK_LEVEL_46
  6
CONTINUOUS
 62
         5
100
AcDbLine
 10
-6.3412705503
 20
5.8797942945
 30
0.0
 11
-6.4436645558
 21
5.9514913491
 31
0.0
  0
LINE
  5
177
100
AcDbEntity
  8
CK_LEVEL_46
  6
CONTINUOUS
 62
         5
100
AcDbLine
 10
-7.1505444554
 20
3.8523079822
 30
0.0
 11
-7.365635619
 21
3.5451259656
 31
0.0
  0
LINE
  5
178
100
AcDbEntity
  8
CK_LEVEL_46
  6
CONTINUOUS
 62
         5
100
AcDbLine
 10
-6.4415509218
 20
3.7752014367
 30
0.0
 11
-6.6385744277
 21
3.4938227095
 31
0.0
  0
LINE
  5
179
100
AcDbEntity
  8
CK_LEVEL_46
  6
CONTINUOUS
 62
         5
100
AcDbLine
 10
-4.5393910609
 20
2.7869428099
 30
0.0
 11
-4.7008528277
 21
2.5563515095
 31
0.0
  0
ENDSEC
  0
SECTION
  2
OBJECTS
  0
DICTIONARY
  5
19
100
AcDbDictionary
  3
ACAD_GROUP
350
1A
  3
ACAD_MLINESTYLE
350
1B
  0
DICTIONARY
  5
1A
102
{ACAD_REACTORS
330
19
102
}
100
AcDbDictionary
  0
DICTIONARY
  5
1B
102
{ACAD_REACTORS
330
19
102
}
100
AcDbDictionary
  3
STANDARD
350
1C
  0
MLINESTYLE
  5
1C
102
{ACAD_REACTORS
330
1B
102
}
100
AcDbMlineStyle
  2
STANDARD
 70
         0
  3

 62
         0
 51
90.0
 52
90.0
 71
         2
 49
0.5
 62
       256
  6
BYLAYER
 49
-0.5
 62
       256
  6
BYLAYER
  0
ENDSEC
  0
EOF
