  0
SECTION
  2
HEADER
  9
$ACADVER
  1
AC1012
  9
$DWGCODEPAGE
  3
dos850
  9
$INSBASE
 10
0.0
 20
0.0
 30
0.0
  9
$EXTMIN
 10
-3.5711968993
 20
-1.0957717669
 30
0.0
  9
$EXTMAX
 10
1.824575102
 20
2.8059177974
 30
0.0
  9
$LIMMIN
 10
0.0
 20
0.0
  9
$LIMMAX
 10
0.0
 20
0.0
  9
$ORTHOMODE
 70
         0
  9
$REGENMODE
 70
         1
  9
$FILLMODE
 70
         1
  9
$QTEXTMODE
 70
         0
  9
$MIRRTEXT
 70
         1
  9
$DRAGMODE
 70
         2
  9
$LTSCALE
 40
1.0
  9
$OSMODE
 70
         0
  9
$ATTMODE
 70
         1
  9
$TEXTSIZE
 40
0.025
  9
$TRACEWID
 40
0.05
  9
$TEXTSTYLE
  7
STANDARD
  9
$CLAYER
  8
0
  9
$CELTYPE
  6
CONTINUOUS
  9
$CECOLOR
 62
         3
  9
$CELTSCALE
 40
1.0
  9
$DELOBJ
 70
         1
  9
$DISPSILH
 70
         0
  9
$DIMSCALE
 40
1.0
  9
$DIMASZ
 40
0.18
  9
$DIMEXO
 40
0.0625
  9
$DIMDLI
 40
0.38
  9
$DIMRND
 40
0.0
  9
$DIMDLE
 40
0.0
  9
$DIMEXE
 40
0.25
  9
$DIMTP
 40
0.0099999998
  9
$DIMTM
 40
-0.0099999998
  9
$DIMTXT
 40
0.125
  9
$DIMCEN
 40
0.09
  9
$DIMTSZ
 40
0.0
  9
$DIMTOL
 70
         0
  9
$DIMLIM
 70
         0
  9
$DIMTIH
 70
         1
  9
$DIMTOH
 70
         1
  9
$DIMSE1
 70
         0
  9
$DIMSE2
 70
         0
  9
$DIMTAD
 70
         0
  9
$DIMZIN
 70
         0
  9
$DIMBLK
  1

  9
$DIMASO
 70
         1
  9
$DIMSHO
 70
         1
  9
$DIMPOST
  1

  9
$DIMAPOST
  1

  9
$DIMALT
 70
         0
  9
$DIMALTD
 70
         2
  9
$DIMALTF
 40
25.4
  9
$DIMLFAC
 40
1.0
  9
$DIMTOFL
 70
         0
  9
$DIMTVP
 40
0.0
  9
$DIMTIX
 70
         0
  9
$DIMSOXD
 70
         0
  9
$DIMSAH
 70
         0
  9
$DIMBLK1
  1

  9
$DIMBLK2
  1

  9
$DIMSTYLE
  2
STANDARD
  9
$DIMCLRD
 70
         0
  9
$DIMCLRE
 70
         0
  9
$DIMCLRT
 70
         3
  9
$DIMTFAC
 40
1.0
  9
$DIMGAP
 40
0.09
  9
$DIMJUST
 70
         0
  9
$DIMSD1
 70
         0
  9
$DIMSD2
 70
         0
  9
$DIMTOLJ
 70
         1
  9
$DIMTZIN
 70
         0
  9
$DIMALTZ
 70
         0
  9
$DIMALTTZ
 70
         0
  9
$DIMFIT
 70
         3
  9
$DIMUPT
 70
         0
  9
$DIMUNIT
 70
         2
  9
$DIMDEC
 70
         4
  9
$DIMTDEC
 70
         4
  9
$DIMALTU
 70
         2
  9
$DIMALTTD
 70
         2
  9
$DIMTXSTY
  7
STANDARD
  9
$DIMAUNIT
 70
         0
  9
$LUNITS
 70
         2
  9
$LUPREC
 70
        10
  9
$SKETCHINC
 40
0.1
  9
$FILLETRAD
 40
0.0
  9
$AUNITS
 70
         0
  9
$AUPREC
 70
         0
  9
$MENU
  1
acad
  9
$ELEVATION
 40
0.0
  9
$PELEVATION
 40
0.0
  9
$THICKNESS
 40
0.0
  9
$LIMCHECK
 70
         0
  9
$BLIPMODE
 70
         1
  9
$CHAMFERA
 40
0.0
  9
$CHAMFERB
 40
0.0
  9
$CHAMFERC
 40
0.0
  9
$CHAMFERD
 40
0.0
  9
$SKPOLY
 70
         0
  9
$TDCREATE
 40
0.000000000
  9
$TDUPDATE
 40
0.000000000
  9
$TDINDWG
 40
0.0000000000
  9
$TDUSRTIMER
 40
0.0000000000
  9
$USRTIMER
 70
         1
  9
$ANGBASE
 50
0.0
  9
$ANGDIR
 70
         0
  9
$PDMODE
 70
         2
  9
$PDSIZE
 40
0.0
  9
$PLINEWID
 40
0.0
  9
$COORDS
 70
         2
  9
$SPLFRAME
 70
         0
  9
$SPLINETYPE
 70
         6
  9
$SPLINESEGS
 70
         8
  9
$ATTDIA
 70
         0
  9
$ATTREQ
 70
         1
  9
$HANDLING
 70
         1
  9
$HANDSEED
  5
6A
  9
$SURFTAB1
 70
         6
  9
$SURFTAB2
 70
         6
  9
$SURFTYPE
 70
         6
  9
$SURFU
 70
         6
  9
$SURFV
 70
         6
  9
$UCSNAME
  2

  9
$UCSORG
 10
0.0
 20
0.0
 30
0.0
  9
$UCSXDIR
 10
1.0
 20
0.0
 30
0.0
  9
$UCSYDIR
 10
0.0
 20
1.0
 30
0.0
  9
$PUCSNAME
  2

  9
$PUCSORG
 10
0.0
 20
0.0
 30
0.0
  9
$PUCSXDIR
 10
1.0
 20
0.0
 30
0.0
  9
$PUCSYDIR
 10
0.0
 20
1.0
 30
0.0
  9
$USERI1
 70
         0
  9
$USERI2
 70
         0
  9
$USERI3
 70
         0
  9
$USERI4
 70
         0
  9
$USERI5
 70
         0
  9
$USERR1
 40
0.0
  9
$USERR2
 40
0.0
  9
$USERR3
 40
0.0
  9
$USERR4
 40
0.0
  9
$USERR5
 40
0.0
  9
$WORLDVIEW
 70
         1
  9
$SHADEDGE
 70
         3
  9
$SHADEDIF
 70
        70
  9
$TILEMODE
 70
         1
  9
$MAXACTVP
 70
        16
  9
$PINSBASE
 10
0.0
 20
0.0
 30
0.0
  9
$PLIMCHECK
 70
         0
  9
$PEXTMIN
 10
1.0000000000E+20
 20
1.0000000000E+20
 30
1.0000000000E+20
  9
$PEXTMAX
 10
-1.0000000000E+20
 20
-1.0000000000E+20
 30
-1.0000000000E+20
  9
$PLIMMIN
 10
0.0
 20
0.0
  9
$PLIMMAX
 10
12.0
 20
9.0
  9
$UNITMODE
 70
         0
  9
$VISRETAIN
 70
         0
  9
$PLINEGEN
 70
         1
  9
$PSLTSCALE
 70
         0
  9
$TREEDEPTH
 70
      3020
  9
$PICKSTYLE
 70
         1
  9
$CMLSTYLE
  2
STANDARD
  9
$CMLJUST
 70
         0
  9
$CMLSCALE
 40
1.0
  9
$SAVEIMAGES
 70
         0
  0
ENDSEC
  0
SECTION
  2
CLASSES
  0
CLASS
  1
LWPOLYLINE
  2
AcDbPolyline
  3
"AutoCAD"
 90
        0
280
         0
281
         1
  0
CLASS
  1
IMAGE
  2
AcDbRasterImage
  3
ISM
 90
      127
280
         0
281
         1
  0
CLASS
  1
OLE2FRAME
  2
AcDbOle2Frame
  3
""
 90
        0
280
         0
281
         1
  0
CLASS
  1
HATCH
  2
AcDbHatch
  3
"ACAD_SEDONA"
 90
        0
280
         0
281
         1
  0
CLASS
  1
DICTIONARYVAR
  2
AcDbDictionaryVar
  3
"AutoCAD"
 90
        0
280
         0
281
         0
  0
CLASS
  1
RASTERVARIABLES
  2
AcDbRasterVariables
  3
ISM
 90
        0
280
         0
281
         0
  0
CLASS
  1
IMAGEDEF
  2
AcDbRasterImageDef
  3
ISM
 90
        0
280
         0
281
         0
  0
CLASS
  1
IMAGEDEF_REACTOR
  2
AcDbRasterImageDefReactor
  3
ISM
 90
        1
280
         0
281
         0
  0
CLASS
  1
IDBUFFER
  2
AcDbIdBuffer
  3
"Acad"
 90
        0
280
         0
281
         0
  0
CLASS
  1
SPATIAL_FILTER
  2
AcDbSpatialFilter
  3
"Acad"
 90
        0
280
         0
281
         0
  0
CLASS
  1
XRECORD
  2
AcDbXrecord
  3
"<Built In>"
 90
        0
280
         0
281
         0
  0
CLASS
  1
SORTENTSTABLE
  2
AcDbSortentsTable
  3
"AutoCAD"
 90
        0
280
         0
281
         0
  0
CLASS
  1
LAYER_INDEX
  2
AcDbLayerIndex
  3
"Acad"
 90
        0
280
         0
281
         0
  0
CLASS
  1
SPATIAL_INDEX
  2
AcDbSpatialIndex
  3
"Acad"
 90
        0
280
         0
281
         0
  0
CLASS
  1
OBJECT_PTR
  2
CAseDLPNTableRecord
  3
"ASE-LPNTableRecord"
 90
        1
280
         0
281
         0
  0
ENDSEC
  0
SECTION
  2
TABLES
  0
TABLE
  2
VPORT
  5
7
100
AcDbSymbolTable
 70
         1
  0
VPORT
  5
15
100
AcDbSymbolTableRecord
100
AcDbViewportTableRecord
  2
*ACTIVE
 70
         0
 10
0.0
 20
0.0
 11
1.0
 21
1.0
 12
-0.8733108987
 22
0.8550730152
 13
0.0
 23
0.0
 14
1.0
 24
1.0
 15
0.0
 25
0.0
 16
0.0
 26
0.0
 36
1.0
 17
0.0
 27
0.0
 37
0.0
 40
3.9016895643
 41
1.3829321663
 42
50.0
 43
0.0
 44
0.0
 50
0.0
 51
0.0
 71
         0
 72
       100
 73
         1
 74
         1
 75
         0
 76
         0
 77
         0
 78
         0
  0
ENDTAB
  0
TABLE
  2
LTYPE
  5
4
100
AcDbSymbolTable
 70
         6
  0
LTYPE
  5
11
100
AcDbSymbolTableRecord
100
AcDbLinetypeTableRecord
  2
BYBLOCK
 70
         0
  3

 72
        65
 73
         0
 40
0.0
  0
LTYPE
  5
12
100
AcDbSymbolTableRecord
100
AcDbLinetypeTableRecord
  2
BYLAYER
 70
         0
  3

 72
        65
 73
         0
 40
0.0
  0
LTYPE
  5
13
100
AcDbSymbolTableRecord
100
AcDbLinetypeTableRecord
  2
CONTINUOUS
 70
         0
  3
Solid line
 72
        65
 73
         0
 40
0.0
  0
LTYPE
  5
1D
100
AcDbSymbolTableRecord
100
AcDbLinetypeTableRecord
  2
DASHED
 70
         0
  3
_ _ _ _ _ _ _ _ _ _ _ _ _ _ _ _
 72
        65
 73
         2
 40
0.2
 49
0.1
 74
         0
 49
-0.1
 74
         0
  0
LTYPE
  5
1E
100
AcDbSymbolTableRecord
100
AcDbLinetypeTableRecord
  2
CENTER
 70
         0
  3
___ _ ___ _ ___ _ ___ _ ___ _ ___ _ ___ _ ___ _
 72
        65
 73
         4
 40
0.95
 49
0.625
 74
         0
 49
-0.125
 74
         0
 49
0.075
 74
         0
 49
-0.125
 74
         0
  0
LTYPE
  5
1F
100
AcDbSymbolTableRecord
100
AcDbLinetypeTableRecord
  2
PHANTOM
 70
         0
  3
______  __  __  ______  __  __  ______  __  __  
 72
        65
 73
         6
 40
1.025
 49
0.625
 74
         0
 49
-0.125
 74
         0
 49
0.075
 74
         0
 49
-0.125
 74
         0
 49
0.075
 74
         0
 49
-0.125
 74
         0
  0
ENDTAB
  0
TABLE
  2
LAYER
  5
2
100
AcDbSymbolTable
 70
        17
  0
LAYER
  5
14
100
AcDbSymbolTableRecord
100
AcDbLayerTableRecord
  2
0
 70
         0
 62
         7
  6
CONTINUOUS
  0
LAYER
  5
21
100
AcDbSymbolTableRecord
100
AcDbLayerTableRecord
  2
CK_LEVEL_1
 70
         0
 62
         7
  6
CONTINUOUS
  0
LAYER
  5
22
100
AcDbSymbolTableRecord
100
AcDbLayerTableRecord
  2
CK_LEVEL_2
 70
         0
 62
         7
  6
CONTINUOUS
  0
LAYER
  5
23
100
AcDbSymbolTableRecord
100
AcDbLayerTableRecord
  2
CK_LEVEL_3
 70
         0
 62
         7
  6
CONTINUOUS
  0
LAYER
  5
24
100
AcDbSymbolTableRecord
100
AcDbLayerTableRecord
  2
CK_LEVEL_4
 70
         0
 62
         7
  6
CONTINUOUS
  0
LAYER
  5
25
100
AcDbSymbolTableRecord
100
AcDbLayerTableRecord
  2
CK_LEVEL_5
 70
         0
 62
         7
  6
CONTINUOUS
  0
LAYER
  5
26
100
AcDbSymbolTableRecord
100
AcDbLayerTableRecord
  2
CK_LEVEL_6
 70
         0
 62
         7
  6
CONTINUOUS
  0
LAYER
  5
27
100
AcDbSymbolTableRecord
100
AcDbLayerTableRecord
  2
CK_LEVEL_7
 70
         0
 62
         7
  6
CONTINUOUS
  0
LAYER
  5
28
100
AcDbSymbolTableRecord
100
AcDbLayerTableRecord
  2
CK_LEVEL_8
 70
         0
 62
         7
  6
CONTINUOUS
  0
LAYER
  5
29
100
AcDbSymbolTableRecord
100
AcDbLayerTableRecord
  2
CK_LEVEL_9
 70
         0
 62
         7
  6
CONTINUOUS
  0
LAYER
  5
2A
100
AcDbSymbolTableRecord
100
AcDbLayerTableRecord
  2
CK_LEVEL_10
 70
         0
 62
         7
  6
CONTINUOUS
  0
LAYER
  5
2B
100
AcDbSymbolTableRecord
100
AcDbLayerTableRecord
  2
CK_LEVEL_11
 70
         0
 62
         7
  6
CONTINUOUS
  0
LAYER
  5
2C
100
AcDbSymbolTableRecord
100
AcDbLayerTableRecord
  2
CK_LEVEL_12
 70
         0
 62
         7
  6
CONTINUOUS
  0
LAYER
  5
2D
100
AcDbSymbolTableRecord
100
AcDbLayerTableRecord
  2
CK_LEVEL_13
 70
         0
 62
         7
  6
CONTINUOUS
  0
LAYER
  5
2E
100
AcDbSymbolTableRecord
100
AcDbLayerTableRecord
  2
CK_LEVEL_14
 70
         0
 62
         7
  6
CONTINUOUS
  0
LAYER
  5
2F
100
AcDbSymbolTableRecord
100
AcDbLayerTableRecord
  2
CK_LEVEL_15
 70
         0
 62
         7
  6
CONTINUOUS
  0
LAYER
  5
30
100
AcDbSymbolTableRecord
100
AcDbLayerTableRecord
  2
CK_LEVEL_16
 70
         0
 62
         7
  6
CONTINUOUS
  0
ENDTAB
  0
TABLE
  2
STYLE
  5
3
100
AcDbSymbolTable
 70
         1
  0
STYLE
  5
17
100
AcDbSymbolTableRecord
100
AcDbTextStyleTableRecord
  2
STANDARD
 70
         0
 40
0.0
 41
1.0
 50
0.0
 71
         0
 42
0.0
  3
txt
  4

  0
ENDTAB
  0
TABLE
  2
VIEW
  5
5
100
AcDbSymbolTable
 70
         0
  0
ENDTAB
  0
TABLE
  2
UCS
  5
6
100
AcDbSymbolTable
 70
         1
  0
UCS
  5
20
100
AcDbSymbolTableRecord
100
AcDbUCSTableRecord
  2
CK_VIEW_1
 70
         0
 10
0.0
 20
0.0
 30
1.0
 11
1.0
 21
0.0
 31
0.0
 12
0.0
 22
1.0
 32
0.0
  0
ENDTAB
  0
TABLE
  2
APPID
  5
8
100
AcDbSymbolTable
 70
         1
  0
APPID
  5
16
100
AcDbSymbolTableRecord
100
AcDbRegAppTableRecord
  2
ACAD
 70
         0
  0
ENDTAB
  0
TABLE
  2
DIMSTYLE
  5
9
100
AcDbSymbolTable
 70
         1
  0
DIMSTYLE
105
18
100
AcDbSymbolTableRecord
100
AcDbDimStyleTableRecord
  2
STANDARD
 70
         0
  3

  4

  5

  6

  7

 40
1.0
 41
0.18
 42
0.0625
 43
0.38
 44
0.18
 45
0.0
 46
0.0
 47
0.0
 48
0.0
140
0.18
141
0.09
142
0.0
143
25.4
144
1.0
145
0.0
146
1.0
147
0.09
 71
         0
 72
         0
 73
         1
 74
         1
 75
         0
 76
         0
 77
         0
 78
         0
170
         0
171
         2
172
         0
173
         0
174
         0
175
         0
176
         0
177
         0
178
         0
270
         2
271
         4
272
         4
273
         2
274
         2
340
17
275
         0
280
         0
281
         0
282
         0
283
         1
284
         0
285
         0
286
         0
287
         0
288
         0
  0
ENDTAB
  0
TABLE
  2
BLOCK_RECORD
  5
1
100
AcDbSymbolTable
 70
         0
  0
BLOCK_RECORD
  5
A
100
AcDbSymbolTableRecord
100
AcDbBlockTableRecord
  2
*MODEL_SPACE
  0
BLOCK_RECORD
  5
B
100
AcDbSymbolTableRecord
100
AcDbBlockTableRecord
  2
*PAPER_SPACE
  0
ENDTAB
  0
ENDSEC
  0
SECTION
  2
BLOCKS
  0
BLOCK
  5
D
100
AcDbEntity
  8
0
100
AcDbBlockBegin
  2
*MODEL_SPACE
 70
         0
 10
0.0
 20
0.0
 30
0.0
  3
*MODEL_SPACE
  1

  0
ENDBLK
  5
E
100
AcDbEntity
  8
0
100
AcDbBlockEnd
  0
BLOCK
  5
F
100
AcDbEntity
 67
         1
  8
0
100
AcDbBlockBegin
  2
*PAPER_SPACE
 70
         0
 10
0.0
 20
0.0
 30
0.0
  3
*PAPER_SPACE
  1

  0
ENDBLK
  5
10
100
AcDbEntity
 67
         1
  8
0
100
AcDbBlockEnd
  0
ENDSEC
  0
SECTION
  2
ENTITIES
  0
LINE
  5
31
100
AcDbEntity
  8
CK_LEVEL_10
  6
CONTINUOUS
 62
       121
100
AcDbLine
 10
0.3749189377
 20
0.8591789007
 30
0.0
 11
0.3749189377
 21
1.2531728745
 31
0.0
  0
ARC
  5
32
100
AcDbEntity
  8
CK_LEVEL_10
  6
CONTINUOUS
 62
         3
100
AcDbCircle
 10
-0.0000810623
 20
0.8592013121
 30
0.0
 40
0.375
100
AcDbArc
 50
271.889422253
 51
359.9965744328
  0
LINE
  5
33
100
AcDbEntity
  8
CK_LEVEL_10
  6
CONTINUOUS
 62
       121
100
AcDbLine
 10
0.0096703004
 20
0.4843190312
 30
0.0
 11
0.0122830868
 21
0.4844052196
 31
0.0
  0
ARC
  5
34
100
AcDbEntity
  8
CK_LEVEL_10
  6
CONTINUOUS
 62
         3
100
AcDbCircle
 10
0.0099999998
 20
0.4743244648
 30
0.0
 40
0.0099999998
100
AcDbArc
 50
91.8893762629
 51
179.8482996773
  0
LINE
  5
35
100
AcDbEntity
  8
CK_LEVEL_10
  6
CONTINUOUS
 62
       121
100
AcDbLine
 10
0.0
 20
-0.1201000512
 30
0.0
 11
0.0
 21
0.4743509293
 31
0.0
  0
ARC
  5
36
100
AcDbEntity
  8
CK_LEVEL_2
  6
CONTINUOUS
 62
       131
100
AcDbCircle
 10
-0.0000810623
 20
0.8592013121
 30
0.0
 40
0.375
100
AcDbArc
 50
271.889422253
 51
343.0699791411
  0
LINE
  5
37
100
AcDbEntity
  8
CK_LEVEL_2
  6
CONTINUOUS
 62
       163
100
AcDbLine
 10
0.0096703004
 20
0.4843190312
 30
0.0
 11
0.0122830868
 21
0.4844052196
 31
0.0
  0
ARC
  5
38
100
AcDbEntity
  8
CK_LEVEL_2
  6
CONTINUOUS
 62
       131
100
AcDbCircle
 10
0.0099999998
 20
0.4743244648
 30
0.0
 40
0.0099999998
100
AcDbArc
 50
91.8893762629
 51
179.8482996773
  0
LINE
  5
39
100
AcDbEntity
  8
CK_LEVEL_2
  6
CONTINUOUS
 62
       163
100
AcDbLine
 10
0.0
 20
0.0
 30
0.0
 11
0.0
 21
0.4743509293
 31
0.0
  0
LINE
  5
3A
100
AcDbEntity
  8
CK_LEVEL_2
  6
DASHED
 62
       163
100
AcDbLine
 10
0.4078091681
 20
0.75
 30
0.0
 11
1.0499999523
 21
0.75
 31
0.0
  0
LINE
  5
3B
100
AcDbEntity
  8
CK_LEVEL_2
  6
DASHED
 62
       163
100
AcDbLine
 10
1.0499999523
 20
0.0
 30
0.0
 11
0.0500000007
 21
0.0
 31
0.0
  0
LINE
  5
3C
100
AcDbEntity
  8
CK_LEVEL_10
  6
CONTINUOUS
 62
       121
100
AcDbLine
 10
-0.9148383008
 20
1.5987622631
 30
0.0
 11
0.3749189377
 21
1.2531728745
 31
0.0
  0
LINE
  5
3D
100
AcDbEntity
  8
CK_LEVEL_10
  6
CONTINUOUS
 62
       121
100
AcDbLine
 10
-0.2139098169
 20
-0.9184222412
 30
0.0
 11
-1.4971807109
 21
-0.5745711503
 31
0.0
  0
LINE
  5
3E
100
AcDbEntity
  8
CK_LEVEL_10
  6
CONTINUOUS
 62
       121
100
AcDbLine
 10
-0.2139098169
 20
-0.9184222412
 30
0.0
 11
0.0
 21
-0.1201000512
 31
0.0
  0
LINE
  5
3F
100
AcDbEntity
  8
CK_LEVEL_16
  6
CONTINUOUS
 62
         4
100
AcDbLine
 10
-0.0097520112
 20
-0.2621491961
 30
0.0
 11
0.0423684964
 21
-0.1718738288
 31
0.0
  0
LINE
  5
40
100
AcDbEntity
  8
CK_LEVEL_16
  6
CONTINUOUS
 62
         4
100
AcDbLine
 10
-0.0530532837
 20
-0.2371491961
 30
0.0
 11
0.0044467153
 21
-0.1375562764
 31
0.0
  0
LINE
  5
41
100
AcDbEntity
  8
CK_LEVEL_16
  6
CONTINUOUS
 62
         4
100
AcDbLine
 10
-0.0530532837
 20
-0.2371491961
 30
0.0
 11
-2.7966217497
 21
1.3468507113
 31
0.0
  0
LINE
  5
42
100
AcDbEntity
  8
CK_LEVEL_16
  6
CONTINUOUS
 62
         4
100
AcDbLine
 10
0.6869466948
 20
1.0445683643
 30
0.0
 11
-2.0566217711
 21
2.6285682717
 31
0.0
  0
LINE
  5
43
100
AcDbEntity
  8
CK_LEVEL_16
  6
CONTINUOUS
 62
         4
100
AcDbLine
 10
0.0044467153
 20
-0.1375562764
 30
0.0
 11
-2.7391217507
 21
1.446443631
 31
0.0
  0
LINE
  5
44
100
AcDbEntity
  8
CK_LEVEL_16
  6
CONTINUOUS
 62
         4
100
AcDbLine
 10
0.6294466958
 20
0.9449754446
 30
0.0
 11
-2.1141217701
 21
2.528975352
 31
0.0
  0
LINE
  5
45
100
AcDbEntity
  8
CK_LEVEL_16
  6
CONTINUOUS
 62
         4
100
AcDbLine
 10
0.6294466958
 20
0.9449754446
 30
0.0
 11
0.6869466948
 21
1.0445683643
 31
0.0
  0
LINE
  5
46
100
AcDbEntity
  8
CK_LEVEL_16
  6
CONTINUOUS
 62
         4
100
AcDbLine
 10
0.6989068533
 20
0.9652839624
 30
0.0
 11
0.7302479673
 21
1.0195683643
 31
0.0
  0
LINE
  5
47
100
AcDbEntity
  8
CK_LEVEL_16
  6
CONTINUOUS
 62
         4
100
AcDbLine
 10
-2.7966217497
 20
1.3468507113
 30
0.0
 11
-2.0566217711
 21
2.6285682717
 31
0.0
  0
LINE
  5
48
100
AcDbEntity
  8
CK_LEVEL_16
  6
CONTINUOUS
 62
         4
100
AcDbLine
 10
0.7735492864
 20
0.9945683374
 30
0.0
 11
0.7544250663
 21
0.9614442167
 31
0.0
  0
LINE
  5
49
100
AcDbEntity
  8
CK_LEVEL_16
  6
CONTINUOUS
 62
         4
100
AcDbLine
 10
0.6294466958
 20
0.9449754446
 30
0.0
 11
0.1555716825
 21
1.0989467578
 31
0.0
  0
LINE
  5
4A
100
AcDbEntity
  8
CK_LEVEL_16
  6
CONTINUOUS
 62
         4
100
AcDbLine
 10
0.0423684964
 20
-0.1718738288
 30
0.0
 11
-0.0155400661
 21
-0.1197327274
 31
0.0
  0
LINE
  5
4B
100
AcDbEntity
  8
CK_LEVEL_16
  6
CONTINUOUS
 62
         4
100
AcDbLine
 10
0.0629896199
 20
-0.1411065069
 30
0.0
 11
0.0198521647
 21
-0.1022653696
 31
0.0
  0
LINE
  5
4C
100
AcDbEntity
  8
CK_LEVEL_16
  6
CONTINUOUS
 62
         4
100
AcDbLine
 10
0.7024635435
 20
0.9314442167
 30
0.0
 11
0.3949189372
 21
0.9314442095
 31
0.0
  0
LINE
  5
4D
100
AcDbEntity
  8
CK_LEVEL_16
  6
CONTINUOUS
 62
         4
100
AcDbLine
 10
0.0
 20
-0.0576766791
 30
0.0
 11
0.0
 21
0.4743509293
 31
0.0
  0
ARC
  5
4E
100
AcDbEntity
  8
CK_LEVEL_16
  6
CONTINUOUS
 62
       221
100
AcDbCircle
 10
0.0099999998
 20
0.4743244648
 30
0.0
 40
0.0099999998
100
AcDbArc
 50
91.8893762629
 51
179.8482996773
  0
LINE
  5
4F
100
AcDbEntity
  8
CK_LEVEL_16
  6
CONTINUOUS
 62
         4
100
AcDbLine
 10
0.0096703004
 20
0.4843190312
 30
0.0
 11
0.0122830868
 21
0.4844052196
 31
0.0
  0
ARC
  5
50
100
AcDbEntity
  8
CK_LEVEL_16
  6
CONTINUOUS
 62
       221
100
AcDbCircle
 10
-0.0000810623
 20
0.8592013121
 30
0.0
 40
0.375
100
AcDbArc
 50
271.889422253
 51
359.9965744328
  0
LINE
  5
51
100
AcDbEntity
  8
CK_LEVEL_16
  6
CONTINUOUS
 62
         4
100
AcDbLine
 10
0.3749189377
 20
0.8591789007
 30
0.0
 11
0.3749189377
 21
0.9114442095
 31
0.0
  0
LINE
  5
52
100
AcDbEntity
  8
CK_LEVEL_16
  6
CONTINUOUS
 62
         4
100
AcDbLine
 10
0.0748033088
 20
-0.2156951974
 30
0.0
 11
0.0335493078
 21
-0.287149223
 31
0.0
  0
ARC
  5
53
100
AcDbEntity
  8
CK_LEVEL_16
  6
CONTINUOUS
 62
       221
100
AcDbCircle
 10
0.3949189377
 20
0.9114442095
 30
0.0
 40
0.02
100
AcDbArc
 50
90.0000013298
 51
180.0
  0
LINE
  5
54
100
AcDbEntity
  8
CK_LEVEL_16
  6
CONTINUOUS
 62
         4
100
AcDbLine
 10
-0.0420096189
 20
-0.0602811401
 30
0.0
 11
-0.0420096189
 21
0.4388130778
 31
0.0
  0
LINE
  5
55
100
AcDbEntity
  8
CK_LEVEL_16
  6
CONTINUOUS
 62
         4
100
AcDbLine
 10
0.3329093187
 20
0.8380607606
 30
0.0
 11
0.3329093187
 21
0.8852839557
 31
0.0
  0
LINE
  5
56
100
AcDbEntity
  8
CK_LEVEL_16
  6
CONTINUOUS
 62
         4
100
AcDbLine
 10
0.6989068533
 20
0.9652839624
 30
0.0
 11
0.4129093169
 21
0.9652839557
 31
0.0
  0
LINE
  5
57
100
AcDbEntity
  8
CK_LEVEL_16
  6
CONTINUOUS
 62
         4
100
AcDbLine
 10
0.0044467153
 20
-0.1375562764
 30
0.0
 11
-0.3658338615
 21
0.1958458369
 31
0.0
  0
LINE
  5
58
100
AcDbEntity
  8
CK_LEVEL_16
  6
CONTINUOUS
 62
         4
100
AcDbLine
 10
-0.1969410303
 20
0.9636298007
 30
0.0
 11
-0.4249023059
 21
0.5687892892
 31
0.0
  0
ARC
  5
59
100
AcDbEntity
  8
CK_LEVEL_16
  6
CONTINUOUS
 62
       221
100
AcDbCircle
 10
-0.1650946848
 20
0.4187892892
 30
0.0
 40
0.3
100
AcDbArc
 50
150.0
 51
228.0000013298
  0
ARC
  5
5A
100
AcDbEntity
  8
CK_LEVEL_16
  6
CONTINUOUS
 62
       221
100
AcDbCircle
 10
0.0628665908
 20
0.8136298007
 30
0.0
 40
0.3
100
AcDbArc
 50
72.0000013298
 51
150.0
  0
ARC
  5
5B
100
AcDbEntity
  8
CK_LEVEL_16
  6
CONTINUOUS
 62
       221
100
AcDbCircle
 10
0.0379903811
 20
0.4388130778
 30
0.0
 40
0.08
100
AcDbArc
 50
94.3494588086
 51
180.0
  0
ARC
  5
5C
100
AcDbEntity
  8
CK_LEVEL_16
  6
CONTINUOUS
 62
       221
100
AcDbCircle
 10
0.4129093187
 20
0.8852839557
 30
0.0
 40
0.08
100
AcDbArc
 50
90.0000013298
 51
180.0
  0
ARC
  5
5D
100
AcDbEntity
  8
CK_LEVEL_16
  6
CONTINUOUS
 62
       221
100
AcDbCircle
 10
0.0379903811
 20
-0.0602811401
 30
0.0
 40
0.08
100
AcDbArc
 50
180.0
 51
228.0000013298
  0
LINE
  5
5E
100
AcDbEntity
  8
CK_LEVEL_16
  6
CONTINUOUS
 62
         4
100
AcDbLine
 10
0.0371779549
 20
0.5189823482
 30
0.0
 11
0.031923222
 21
0.5185826809
 31
0.0
  0
ARC
  5
5F
100
AcDbEntity
  8
CK_LEVEL_16
  6
CONTINUOUS
 62
       221
100
AcDbCircle
 10
0.06
 20
-0.0576766791
 30
0.0
 40
0.06
100
AcDbArc
 50
180.0
 51
228.0000013298
  0
ARC
  5
60
100
AcDbEntity
  8
CK_LEVEL_16
  6
CONTINUOUS
 62
       221
100
AcDbCircle
 10
0.0228417845
 20
-0.1856951974
 30
0.0
 40
0.06
100
AcDbArc
 50
330.0
 51
408.0000013298
  0
ARC
  5
61
100
AcDbEntity
  8
CK_LEVEL_16
  6
CONTINUOUS
 62
       221
100
AcDbCircle
 10
0.7024635421
 20
0.9914442167
 30
0.0
 40
0.06
100
AcDbArc
 50
270.0000013298
 51
330.0
  0
ARC
  5
62
100
AcDbEntity
  8
CK_LEVEL_16
  6
CONTINUOUS
 62
       221
100
AcDbCircle
 10
0.0129093187
 20
0.8380607606
 30
0.0
 40
0.32
100
AcDbArc
 50
274.3494588086
 51
360.0
  0
LINE
  5
63
100
AcDbEntity
  8
CK_LEVEL_10
  6
CONTINUOUS
 62
       121
100
AcDbLine
 10
-0.9148383008
 20
1.5987622631
 30
0.0
 11
-1.4971807109
 21
-0.5745711503
 31
0.0
  0
TEXT
  5
64
100
AcDbEntity
  8
CK_LEVEL_10
  6
CONTINUOUS
 62
       121
100
AcDbText
 10
-0.7442094414
 20
-0.1919953664
 30
0.0
 40
0.125
  1
PATTERN #0932
 41
0.75
100
AcDbText
  0
TEXT
  5
65
100
AcDbEntity
  8
CK_LEVEL_10
  6
CONTINUOUS
 62
       121
100
AcDbText
 10
-0.7442094414
 20
-0.3919953664
 30
0.0
 40
0.125
  1
BT-3302-02
 41
0.75
100
AcDbText
  0
TEXT
  5
66
100
AcDbEntity
  8
CK_LEVEL_10
  6
CONTINUOUS
 62
       121
100
AcDbText
 10
-0.7442094414
 20
-0.1919953664
 30
0.0
 40
0.125
  1
PATTERN #0932
 41
0.75
100
AcDbText
  0
TEXT
  5
67
100
AcDbEntity
  8
CK_LEVEL_10
  6
CONTINUOUS
 62
       121
100
AcDbText
 10
-0.7442094414
 20
-0.3919953664
 30
0.0
 40
0.125
  1
BT-3302-02
 41
0.75
100
AcDbText
  0
ENDSEC
  0
SECTION
  2
OBJECTS
  0
DICTIONARY
  5
19
100
AcDbDictionary
  3
ACAD_GROUP
350
1A
  3
ACAD_MLINESTYLE
350
1B
  0
DICTIONARY
  5
1A
102
{ACAD_REACTORS
330
19
102
}
100
AcDbDictionary
  0
DICTIONARY
  5
1B
102
{ACAD_REACTORS
330
19
102
}
100
AcDbDictionary
  3
STANDARD
350
1C
  0
MLINESTYLE
  5
1C
102
{ACAD_REACTORS
330
1B
102
}
100
AcDbMlineStyle
  2
STANDARD
 70
         0
  3

 62
         0
 51
90.0
 52
90.0
 71
         2
 49
0.5
 62
       256
  6
BYLAYER
 49
-0.5
 62
       256
  6
BYLAYER
  0
ENDSEC
  0
EOF
