  0
SECTION
  2
HEADER
  9
$ACADVER
  1
AC1009
  9
$DWGCODEPAGE
  3
ansi_1252
  9
$INSBASE
 10
0.0
 20
0.0
 30
0.0
  9
$EXTMIN
 10
1.000000000000000E+20
 20
1.000000000000000E+20
 30
1.000000000000000E+20
  9
$EXTMAX
 10
-1.000000000000000E+20
 20
-1.000000000000000E+20
 30
-1.000000000000000E+20
  9
$LIMMIN
 10
0.0
 20
0.0
  9
$LIMMAX
 10
12.0
 20
9.0
  9
$ORTHOMODE
 70
     0
  9
$REGENMODE
 70
     1
  9
$FILLMODE
 70
     1
  9
$QTEXTMODE
 70
     0
  9
$MIRRTEXT
 70
     1
  9
$DRAGMODE
 70
     2
  9
$LTSCALE
 40
1.0
  9
$OSMODE
 70
    37
  9
$ATTMODE
 70
     1
  9
$TEXTSIZE
 40
0.125
  9
$TRACEWID
 40
0.05
  9
$TEXTSTYLE
  7
STANDARD
  9
$CLAYER
  8
0
  9
$CELTYPE
  6
BYLAYER
  9
$CECOLOR
 62
    23
  9
$DIMSCALE
 40
1.0
  9
$DIMASZ
 40
0.18
  9
$DIMEXO
 40
0.0625
  9
$DIMDLI
 40
0.38
  9
$DIMRND
 40
0.0
  9
$DIMDLE
 40
0.0
  9
$DIMEXE
 40
0.045
  9
$DIMTP
 40
0.01
  9
$DIMTM
 40
-0.01
  9
$DIMTXT
 40
0.125
  9
$DIMCEN
 40
0.09
  9
$DIMTSZ
 40
0.0
  9
$DIMTOL
 70
     0
  9
$DIMLIM
 70
     0
  9
$DIMTIH
 70
     1
  9
$DIMTOH
 70
     1
  9
$DIMSE1
 70
     0
  9
$DIMSE2
 70
     0
  9
$DIMTAD
 70
     0
  9
$DIMZIN
 70
     0
  9
$DIMBLK
  1

  9
$DIMASO
 70
     1
  9
$DIMSHO
 70
     1
  9
$DIMPOST
  1

  9
$DIMAPOST
  1

  9
$DIMALT
 70
     0
  9
$DIMALTD
 70
     2
  9
$DIMALTF
 40
25.4
  9
$DIMLFAC
 40
1.0
  9
$DIMTOFL
 70
     0
  9
$DIMTVP
 40
0.0
  9
$DIMTIX
 70
     0
  9
$DIMSOXD
 70
     0
  9
$DIMSAH
 70
     0
  9
$DIMBLK1
  1

  9
$DIMBLK2
  1

  9
$DIMSTYLE
  2
STANDARD
  9
$DIMCLRD
 70
     0
  9
$DIMCLRE
 70
     0
  9
$DIMCLRT
 70
     0
  9
$DIMTFAC
 40
1.0
  9
$DIMGAP
 40
0.09
  9
$LUNITS
 70
     2
  9
$LUPREC
 70
     8
  9
$SKETCHINC
 40
0.1
  9
$FILLETRAD
 40
0.5
  9
$AUNITS
 70
     0
  9
$AUPREC
 70
     0
  9
$MENU
  1
.
  9
$ELEVATION
 40
0.0
  9
$PELEVATION
 40
0.0
  9
$THICKNESS
 40
0.0
  9
$LIMCHECK
 70
     0
  9
$CHAMFERA
 40
0.5
  9
$CHAMFERB
 40
0.5
  9
$SKPOLY
 70
     0
  9
$TDCREATE
 40
2453803.383934537
  9
$TDUPDATE
 40
2453803.383934549
  9
$TDINDWG
 40
0.0000000116
  9
$TDUSRTIMER
 40
0.0000000116
  9
$USRTIMER
 70
     1
  9
$ANGBASE
 50
0.0
  9
$ANGDIR
 70
     0
  9
$PDMODE
 70
     2
  9
$PDSIZE
 40
5.0
  9
$PLINEWID
 40
0.0
  9
$COORDS
 70
     1
  9
$SPLFRAME
 70
     0
  9
$SPLINETYPE
 70
     6
  9
$SPLINESEGS
 70
     8
  9
$ATTDIA
 70
     0
  9
$ATTREQ
 70
     1
  9
$HANDLING
 70
     1
  9
$HANDSEED
  5
51
  9
$SURFTAB1
 70
     6
  9
$SURFTAB2
 70
     6
  9
$SURFTYPE
 70
     6
  9
$SURFU
 70
     6
  9
$SURFV
 70
     6
  9
$UCSNAME
  2

  9
$UCSORG
 10
0.0
 20
0.0
 30
0.0
  9
$UCSXDIR
 10
1.0
 20
0.0
 30
0.0
  9
$UCSYDIR
 10
0.0
 20
1.0
 30
0.0
  9
$PUCSNAME
  2

  9
$PUCSORG
 10
0.0
 20
0.0
 30
0.0
  9
$PUCSXDIR
 10
1.0
 20
0.0
 30
0.0
  9
$PUCSYDIR
 10
0.0
 20
1.0
 30
0.0
  9
$USERI1
 70
     0
  9
$USERI2
 70
     0
  9
$USERI3
 70
     0
  9
$USERI4
 70
     0
  9
$USERI5
 70
     0
  9
$USERR1
 40
0.0
  9
$USERR2
 40
0.0
  9
$USERR3
 40
0.0
  9
$USERR4
 40
0.0
  9
$USERR5
 40
0.0
  9
$WORLDVIEW
 70
     1
  9
$SHADEDGE
 70
     3
  9
$SHADEDIF
 70
    70
  9
$TILEMODE
 70
     1
  9
$MAXACTVP
 70
    64
  9
$PLIMCHECK
 70
     0
  9
$PEXTMIN
 10
0.0
 20
0.0
 30
0.0
  9
$PEXTMAX
 10
0.0
 20
0.0
 30
0.0
  9
$PLIMMIN
 10
-0.25
 20
-0.25
  9
$PLIMMAX
 10
10.75
 20
8.25
  9
$UNITMODE
 70
     0
  9
$VISRETAIN
 70
     1
  9
$PLINEGEN
 70
     0
  9
$PSLTSCALE
 70
     1
  0
ENDSEC
  0
SECTION
  2
TABLES
  0
TABLE
  2
VPORT
 70
     1
  0
VPORT
  2
*ACTIVE
 70
     0
 10
0.0
 20
0.0
 11
1.0
 21
1.0
 12
0.0
 22
0.0
 13
0.0
 23
0.0
 14
0.5
 24
0.5
 15
0.5
 25
0.5
 16
0.0
 26
0.0
 36
1.0
 17
0.0492981753313206
 27
0.256
 37
0.0
 40
2.25
 41
1.067290510816604
 42
50.0
 43
0.0
 44
0.0
 50
0.0
 51
0.0
 71
     0
 72
 10000
 73
     1
 74
     3
 75
     0
 76
     0
 77
     0
 78
     0
  0
ENDTAB
  0
TABLE
  2
LTYPE
 70
     4
  0
LTYPE
  2
CONTINUOUS
 70
     0
  3
Solid line
 72
    65
 73
     0
 40
0.0
  0
LTYPE
  2
DASHED
 70
     0
  3
_ _ _ _ _ _ _ _ _ _ _ _ _ _ _ _
 72
    65
 73
     2
 40
0.2
 49
0.1
 49
-0.1
  0
LTYPE
  2
CENTER
 70
     0
  3
___ _ ___ _ ___ _ ___ _ ___ _ ___ _ ___ _ ___ _
 72
    65
 73
     4
 40
0.95
 49
0.625
 49
-0.125
 49
0.075
 49
-0.125
  0
LTYPE
  2
PHANTOM
 70
     0
  3
______  __  __  ______  __  __  ______  __  __  
 72
    65
 73
     6
 40
1.025
 49
0.625
 49
-0.125
 49
0.075
 49
-0.125
 49
0.075
 49
-0.125
  0
ENDTAB
  0
TABLE
  2
LAYER
 70
     3
  0
LAYER
  2
0
 70
     0
 62
     7
  6
CONTINUOUS
  0
LAYER
  2
PATTERN__0779__2_
 70
     0
 62
    89
  6
CONTINUOUS
  0
LAYER
  2
BT-3041-02_PROFILE_TEMPLAT
 70
     0
 62
    89
  6
CONTINUOUS
  0
ENDTAB
  0
TABLE
  2
STYLE
 70
     2
  0
STYLE
  2
STANDARD
 70
     0
 40
0.0
 41
1.0
 50
0.0
 71
     0
 42
0.2
  3
txt
  4

  0
STYLE
  2
CK_TEXT_STYLE_0001
 70
     0
 40
0.125
 41
1.0
 50
0.0
 71
     0
 42
0.2
  3
Box
  4

  0
ENDTAB
  0
TABLE
  2
VIEW
 70
     3
  0
VIEW
  2
30Ø_TILT_LAYOUT
 70
     0
 40
2.25
 10
0.0492981753313206
 20
0.256
 41
2.401403649337359
 11
0.0
 21
0.0
 31
1.0
 12
0.0
 22
0.0
 32
0.0
 42
50.0
 43
0.0
 44
0.0
 50
-60.00000000000001
 71
     0
  0
VIEW
  2
90Ø_CW_ROTATION
 70
     0
 40
2.25
 10
0.0492981753313206
 20
0.256
 41
2.401403649337359
 11
0.0
 21
0.0
 31
1.0
 12
0.0
 22
0.0
 32
0.0
 42
50.0
 43
0.0
 44
0.0
 50
-90.00000000000003
 71
     0
  0
VIEW
  2
90Ø_CCW_ROTATION
 70
     0
 40
2.25
 10
0.0492981753313206
 20
0.256
 41
2.401403649337359
 11
0.0
 21
0.0
 31
1.0
 12
0.0
 22
0.0
 32
0.0
 42
50.0
 43
0.0
 44
0.0
 50
90.00000000000003
 71
     0
  0
ENDTAB
  0
TABLE
  2
UCS
 70
     3
  0
UCS
  2
30Ø_TILT_LAYOUT
 70
     0
 10
0.0
 20
0.0
 30
0.0
 11
0.4999999999999999
 21
0.8660254037844387
 31
0.0
 12
-0.8660254037844387
 22
0.4999999999999999
 32
0.0
  0
UCS
  2
90Ø_CW_ROTATION
 70
     0
 10
0.0
 20
0.0
 30
0.0
 11
-3.828588921589438E-16
 21
1.0
 31
0.0
 12
-1.0
 22
-3.828588921589438E-16
 32
0.0
  0
UCS
  2
90Ø_CCW_ROTATION
 70
     0
 10
0.0
 20
0.0
 30
0.0
 11
-3.828588921589438E-16
 21
-1.0
 31
0.0
 12
1.0
 22
-3.828588921589438E-16
 32
0.0
  0
ENDTAB
  0
TABLE
  2
APPID
 70
     1
  0
APPID
  2
ACAD
 70
     0
  0
ENDTAB
  0
TABLE
  2
DIMSTYLE
 70
     1
  0
DIMSTYLE
  2
STANDARD
 70
     0
  3

  4

  5

  6

  7

 40
1.0
 41
0.18
 42
0.0625
 43
0.38
 44
0.18
 45
0.0
 46
0.0
 47
0.0
 48
0.0
140
0.18
141
0.09
142
0.0
143
25.4
144
1.0
145
0.0
146
1.0
147
0.09
 71
     0
 72
     0
 73
     1
 74
     1
 75
     0
 76
     0
 77
     0
 78
     0
170
     0
171
     2
172
     0
173
     0
174
     0
175
     0
176
     0
177
     0
178
     0
  0
ENDTAB
  0
ENDSEC
  0
SECTION
  2
BLOCKS
  0
BLOCK
  8
0
  2
$MODEL_SPACE
 70
     0
 10
0.0
 20
0.0
 30
0.0
  3
$MODEL_SPACE
  1

  0
ENDBLK
  5
21
  8
0
  0
BLOCK
 67
     1
  8
0
  2
$PAPER_SPACE
 70
     0
 10
0.0
 20
0.0
 30
0.0
  3
$PAPER_SPACE
  1

  0
ENDBLK
  5
1D
 67
     1
  8
0
  0
ENDSEC
  0
SECTION
  2
ENTITIES
  0
ARC
  5
32
  8
BT-3041-02_PROFILE_TEMPLAT
  6
CONTINUOUS
 62
   121
 10
0.245
 20
0.4036235737155812
 30
0.0
 40
0.245
 50
113.5498988093274
 51
180.0
  0
LINE
  5
33
  8
BT-3041-02_PROFILE_TEMPLAT
  6
CONTINUOUS
 62
   121
 10
-1.151403649337359
 20
-0.869
 30
0.0
 11
-1.151403649337359
 21
1.381
 31
0.0
  0
LINE
  5
34
  8
BT-3041-02_PROFILE_TEMPLAT
  6
CONTINUOUS
 62
   121
 10
-1.151403649337359
 20
-0.869
 30
0.0
 11
-0.0000000000000001
 21
-0.869
 31
0.0
  0
LINE
  5
35
  8
BT-3041-02_PROFILE_TEMPLAT
  6
CONTINUOUS
 62
   121
 10
-1.151403649337359
 20
1.381
 30
0.0
 11
0.245684350662641
 21
1.381
 31
0.0
  0
LINE
  5
36
  8
BT-3041-02_PROFILE_TEMPLAT
  6
CONTINUOUS
 62
   121
 10
0.0
 20
0.4036235737155812
 30
0.0
 11
0.0
 21
-0.8689999999999997
 31
0.0
  0
LINE
  5
37
  8
BT-3041-02_PROFILE_TEMPLAT
  6
CONTINUOUS
 62
   121
 10
0.2456843506626408
 20
0.7425769082634793
 30
0.0
 11
0.2456843506626408
 21
1.381
 31
0.0
  0
TEXT
  5
39
  8
BT-3041-02_PROFILE_TEMPLAT
  6
CONTINUOUS
 62
   121
 10
-0.2078442402921497
 20
0.06980466109196
 30
0.0
 40
0.125
  1
0779
 50
90.00000000000003
  0
TEXT
  5
3A
  8
BT-3041-02_PROFILE_TEMPLAT
  6
CONTINUOUS
 62
   121
 10
-0.385188183456881
 20
-0.3414063399829519
 30
0.0
 40
0.125
  1
BT-3041-02
 50
90.00000000000003
  0
ARC
  5
3B
  8
BT-3041-02_PROFILE_TEMPLAT
  6
CONTINUOUS
 62
    23
 10
0.1366843506626408
 20
0.7425769082634793
 30
0.0
 40
0.109
 50
293.5498988093273
 51
0.0
  0
LINE
  5
3C
  8
BT-3041-02_PROFILE_TEMPLAT
  6
CONTINUOUS
 62
    23
 10
0.1802350373037438
 20
0.6426552504855558
 30
0.0
 11
0.147110841953484
 21
0.6282181256017394
 31
0.0
  0
LINE
  5
3D
  8
PATTERN__0779__2_
  6
CONTINUOUS
 62
     3
 10
0.2456843506626408
 20
0.7425769082634793
 30
0.0
 11
0.2456843506626408
 21
0.75
 31
0.0
  0
LINE
  5
3E
  8
PATTERN__0779__2_
  6
CONTINUOUS
 62
     3
 10
0.0
 20
0.4036235737155812
 30
0.0
 11
0.0
 21
0.0
 31
0.0
  0
LINE
  5
3F
  8
PATTERN__0779__2_
  6
CONTINUOUS
 62
     3
 10
0.1802350373037438
 20
0.6426552504855558
 30
0.0
 11
0.147110841953484
 21
0.6282181256017394
 31
0.0
  0
LINE
  5
40
  8
PATTERN__0779__2_
  6
DASHED
 62
    15
 10
0.05
 20
0.0
 30
0.0
 11
1.25
 21
0.0
 31
0.0
  0
LINE
  5
41
  8
PATTERN__0779__2_
  6
DASHED
 62
    15
 10
0.2956843506626408
 20
0.75
 30
0.0
 11
1.25
 21
0.75
 31
0.0
  0
ARC
  5
42
  8
PATTERN__0779__2_
  6
CONTINUOUS
 62
     6
 10
0.245
 20
0.4036235737155812
 30
0.0
 40
0.245
 50
113.5498988093274
 51
180.0
  0
ARC
  5
43
  8
PATTERN__0779__2_
  6
CONTINUOUS
 62
     6
 10
0.1366843506626408
 20
0.7425769082634793
 30
0.0
 40
0.109
 50
293.5498988093273
 51
0.0
  0
LINE
  5
44
  8
PATTERN__0779__2_
  6
CONTINUOUS
 62
   252
 10
0.0
 20
-0.05
 30
0.0
 11
0.0
 21
-0.344
 31
0.0
  0
LINE
  5
45
  8
PATTERN__0779__2_
  6
CONTINUOUS
 62
   252
 10
0.0
 20
-0.344
 30
0.0
 11
0.2500000000000001
 21
-0.344
 31
0.0
  0
LINE
  5
46
  8
PATTERN__0779__2_
  6
CONTINUOUS
 62
   252
 10
0.2456843506626408
 20
0.813
 30
0.0
 11
0.4956843506626408
 21
0.813
 31
0.0
  0
LINE
  5
47
  8
PATTERN__0779__2_
  6
CONTINUOUS
 62
   252
 10
0.2456843506626408
 20
0.782
 30
0.0
 11
0.2456843506626408
 21
0.813
 31
0.0
  0
VIEWPORT
  5
49
 67
     1
  8
0
 62
    23
 10
5.25
 20
4.0
 30
0.0
 40
11.638
 41
8.993
 68
     1
 69
     1
1001
ACAD
1000
MVIEW
1002
{
1070
    16
1010
0.0
1020
0.0
1030
0.0
1020
0.0
1030
0.0
1010
0.0
1020
0.0
1030
1.0
1020
0.0
1030
1.0
1040
0.0
1040
8.993
1040
5.25
1040
4.0
1040
50.0
1040
0.0
1040
0.0
1070
     0
1070
   100
1070
     0
1070
     1
1070
     0
1070
     0
1070
     0
1070
     0
1040
0.0
1040
0.0
1040
0.0
1040
0.5
1040
0.5
1040
0.5
1040
0.5
1070
     0
1002
{
1002
}
1002
}
  0
ENDSEC
  0
EOF
