  0
SECTION
  2
HEADER
  9
$ACADVER
  1
AC1009
  9
$DWGCODEPAGE
  3
ansi_1252
  9
$INSBASE
 10
0.0
 20
0.0
 30
0.0
  9
$EXTMIN
 10
1.000000000000000E+20
 20
1.000000000000000E+20
 30
1.000000000000000E+20
  9
$EXTMAX
 10
-1.000000000000000E+20
 20
-1.000000000000000E+20
 30
-1.000000000000000E+20
  9
$LIMMIN
 10
0.0
 20
0.0
  9
$LIMMAX
 10
12.0
 20
9.0
  9
$ORTHOMODE
 70
     0
  9
$REGENMODE
 70
     1
  9
$FILLMODE
 70
     1
  9
$QTEXTMODE
 70
     0
  9
$MIRRTEXT
 70
     1
  9
$DRAGMODE
 70
     2
  9
$LTSCALE
 40
1.0
  9
$OSMODE
 70
    37
  9
$ATTMODE
 70
     1
  9
$TEXTSIZE
 40
0.06
  9
$TRACEWID
 40
0.05
  9
$TEXTSTYLE
  7
STANDARD
  9
$CLAYER
  8
0
  9
$CELTYPE
  6
BYLAYER
  9
$CECOLOR
 62
    15
  9
$DIMSCALE
 40
1.0
  9
$DIMASZ
 40
0.18
  9
$DIMEXO
 40
0.0625
  9
$DIMDLI
 40
0.38
  9
$DIMRND
 40
0.0
  9
$DIMDLE
 40
0.0
  9
$DIMEXE
 40
0.0225
  9
$DIMTP
 40
0.001
  9
$DIMTM
 40
-0.001
  9
$DIMTXT
 40
0.06
  9
$DIMCEN
 40
0.09
  9
$DIMTSZ
 40
0.0
  9
$DIMTOL
 70
     0
  9
$DIMLIM
 70
     0
  9
$DIMTIH
 70
     1
  9
$DIMTOH
 70
     1
  9
$DIMSE1
 70
     0
  9
$DIMSE2
 70
     0
  9
$DIMTAD
 70
     0
  9
$DIMZIN
 70
     0
  9
$DIMBLK
  1

  9
$DIMASO
 70
     1
  9
$DIMSHO
 70
     1
  9
$DIMPOST
  1

  9
$DIMAPOST
  1

  9
$DIMALT
 70
     0
  9
$DIMALTD
 70
     2
  9
$DIMALTF
 40
25.4
  9
$DIMLFAC
 40
1.0
  9
$DIMTOFL
 70
     0
  9
$DIMTVP
 40
0.0
  9
$DIMTIX
 70
     0
  9
$DIMSOXD
 70
     0
  9
$DIMSAH
 70
     0
  9
$DIMBLK1
  1

  9
$DIMBLK2
  1

  9
$DIMSTYLE
  2
STANDARD
  9
$DIMCLRD
 70
     0
  9
$DIMCLRE
 70
     0
  9
$DIMCLRT
 70
     0
  9
$DIMTFAC
 40
1.0
  9
$DIMGAP
 40
0.09
  9
$LUNITS
 70
     2
  9
$LUPREC
 70
     8
  9
$SKETCHINC
 40
0.1
  9
$FILLETRAD
 40
0.5
  9
$AUNITS
 70
     0
  9
$AUPREC
 70
     0
  9
$MENU
  1
.
  9
$ELEVATION
 40
0.0
  9
$PELEVATION
 40
0.0
  9
$THICKNESS
 40
0.0
  9
$LIMCHECK
 70
     0
  9
$CHAMFERA
 40
0.5
  9
$CHAMFERB
 40
0.5
  9
$SKPOLY
 70
     0
  9
$TDCREATE
 40
2456398.369774051
  9
$TDUPDATE
 40
2456398.369774063
  9
$TDINDWG
 40
0.0000000116
  9
$TDUSRTIMER
 40
0.0000000116
  9
$USRTIMER
 70
     1
  9
$ANGBASE
 50
0.0
  9
$ANGDIR
 70
     0
  9
$PDMODE
 70
     2
  9
$PDSIZE
 40
0.03
  9
$PLINEWID
 40
0.0
  9
$COORDS
 70
     1
  9
$SPLFRAME
 70
     0
  9
$SPLINETYPE
 70
     6
  9
$SPLINESEGS
 70
     8
  9
$ATTDIA
 70
     0
  9
$ATTREQ
 70
     1
  9
$HANDLING
 70
     1
  9
$HANDSEED
  5
60
  9
$SURFTAB1
 70
     6
  9
$SURFTAB2
 70
     6
  9
$SURFTYPE
 70
     6
  9
$SURFU
 70
     6
  9
$SURFV
 70
     6
  9
$UCSNAME
  2

  9
$UCSORG
 10
0.0
 20
0.0
 30
0.0
  9
$UCSXDIR
 10
1.0
 20
0.0
 30
0.0
  9
$UCSYDIR
 10
0.0
 20
1.0
 30
0.0
  9
$PUCSNAME
  2

  9
$PUCSORG
 10
0.0
 20
0.0
 30
0.0
  9
$PUCSXDIR
 10
1.0
 20
0.0
 30
0.0
  9
$PUCSYDIR
 10
0.0
 20
1.0
 30
0.0
  9
$USERI1
 70
     0
  9
$USERI2
 70
     0
  9
$USERI3
 70
     0
  9
$USERI4
 70
     0
  9
$USERI5
 70
     0
  9
$USERR1
 40
0.0
  9
$USERR2
 40
0.0
  9
$USERR3
 40
0.0
  9
$USERR4
 40
0.0
  9
$USERR5
 40
0.0
  9
$WORLDVIEW
 70
     1
  9
$SHADEDGE
 70
     3
  9
$SHADEDIF
 70
    70
  9
$TILEMODE
 70
     1
  9
$MAXACTVP
 70
    64
  9
$PLIMCHECK
 70
     0
  9
$PEXTMIN
 10
1.000000000000000E+20
 20
1.000000000000000E+20
 30
1.000000000000000E+20
  9
$PEXTMAX
 10
-1.000000000000000E+20
 20
-1.000000000000000E+20
 30
-1.000000000000000E+20
  9
$PLIMMIN
 10
-0.25
 20
-0.25
  9
$PLIMMAX
 10
10.75
 20
8.25
  9
$UNITMODE
 70
     0
  9
$VISRETAIN
 70
     1
  9
$PLINEGEN
 70
     0
  9
$PSLTSCALE
 70
     1
  0
ENDSEC
  0
SECTION
  2
TABLES
  0
TABLE
  2
VPORT
 70
     1
  0
VPORT
  2
*ACTIVE
 70
     0
 10
0.0
 20
0.0
 11
1.0
 21
1.0
 12
0.0
 22
0.0
 13
0.0
 23
0.0
 14
0.5
 24
0.5
 15
0.5
 25
0.5
 16
0.0
 26
0.0
 36
1.0
 17
0.5625
 27
0.4214999999999999
 37
0.0
 40
1.093
 41
1.029277218664227
 42
50.0
 43
0.0
 44
0.0
 50
0.0
 51
0.0
 71
     0
 72
 10000
 73
     1
 74
     3
 75
     0
 76
     0
 77
     0
 78
     0
  0
ENDTAB
  0
TABLE
  2
LTYPE
 70
     4
  0
LTYPE
  2
CONTINUOUS
 70
     0
  3
Solid line
 72
    65
 73
     0
 40
0.0
  0
LTYPE
  2
DASHED
 70
     0
  3
_ _ _ _ _ _ _ _ _ _ _ _ _ _ _ _
 72
    65
 73
     2
 40
0.2
 49
0.1
 49
-0.1
  0
LTYPE
  2
CENTER
 70
     0
  3
___ _ ___ _ ___ _ ___ _ ___ _ ___ _ ___ _ ___ _
 72
    65
 73
     4
 40
0.95
 49
0.625
 49
-0.125
 49
0.075
 49
-0.125
  0
LTYPE
  2
PHANTOM
 70
     0
  3
______  __  __  ______  __  __  ______  __  __  
 72
    65
 73
     6
 40
1.025
 49
0.625
 49
-0.125
 49
0.075
 49
-0.125
 49
0.075
 49
-0.125
  0
ENDTAB
  0
TABLE
  2
LAYER
 70
    14
  0
LAYER
  2
0
 70
     0
 62
     7
  6
CONTINUOUS
  0
LAYER
  2
PATTERN_2542__2_
 70
     0
 62
    89
  6
CONTINUOUS
  0
LAYER
  2
UNNAMED__2_1_
 70
     0
 62
   -89
  6
CONTINUOUS
  0
LAYER
  2
UNNAMED__1_
 70
     0
 62
   -89
  6
CONTINUOUS
  0
LAYER
  2
TURBOSAND__12_
 70
     0
 62
   -89
  6
CONTINUOUS
  0
LAYER
  2
TS6-FBB_HEAD__12_15_
 70
     0
 62
   -89
  6
CONTINUOUS
  0
LAYER
  2
B1423-83_ORIGINAL__12_2_
 70
     0
 62
   -89
  6
CONTINUOUS
  0
LAYER
  2
POCKET_A__12_2_1_
 70
     0
 62
   -89
  6
CONTINUOUS
  0
LAYER
  2
POCKET_B__12_2_2_
 70
     0
 62
   -89
  6
CONTINUOUS
  0
LAYER
  2
B1423-83A_RECUT_1__12_3_
 70
     0
 62
   -89
  6
CONTINUOUS
  0
LAYER
  2
POCKET_A__12_3_1_
 70
     0
 62
   -89
  6
CONTINUOUS
  0
LAYER
  2
POCKET_B__12_3_2_
 70
     0
 62
   -89
  6
CONTINUOUS
  0
LAYER
  2
XA_INSERT_SHAPER__5_
 70
     0
 62
   -89
  6
CONTINUOUS
  0
LAYER
  2
BT-5583-02_TEMPLATE__10_
 70
     0
 62
   -89
  6
CONTINUOUS
  0
ENDTAB
  0
TABLE
  2
STYLE
 70
     1
  0
STYLE
  2
STANDARD
 70
     0
 40
0.0
 41
1.0
 50
0.0
 71
     0
 42
0.2
  3
txt
  4

  0
ENDTAB
  0
TABLE
  2
VIEW
 70
     0
  0
ENDTAB
  0
TABLE
  2
UCS
 70
     0
  0
ENDTAB
  0
TABLE
  2
APPID
 70
     1
  0
APPID
  2
ACAD
 70
     0
  0
ENDTAB
  0
TABLE
  2
DIMSTYLE
 70
     1
  0
DIMSTYLE
  2
STANDARD
 70
     0
  3

  4

  5

  6

  7

 40
1.0
 41
0.18
 42
0.0625
 43
0.38
 44
0.18
 45
0.0
 46
0.0
 47
0.0
 48
0.0
140
0.18
141
0.09
142
0.0
143
25.4
144
1.0
145
0.0
146
1.0
147
0.09
 71
     0
 72
     0
 73
     1
 74
     1
 75
     0
 76
     0
 77
     0
 78
     0
170
     0
171
     2
172
     0
173
     0
174
     0
175
     0
176
     0
177
     0
178
     0
  0
ENDTAB
  0
ENDSEC
  0
SECTION
  2
BLOCKS
  0
BLOCK
  8
0
  2
$MODEL_SPACE
 70
     0
 10
0.0
 20
0.0
 30
0.0
  3
$MODEL_SPACE
  1

  0
ENDBLK
  5
21
  8
0
  0
BLOCK
 67
     1
  8
0
  2
$PAPER_SPACE
 70
     0
 10
0.0
 20
0.0
 30
0.0
  3
$PAPER_SPACE
  1

  0
ENDBLK
  5
1D
 67
     1
  8
0
  0
ENDSEC
  0
SECTION
  2
ENTITIES
  0
LINE
  5
4B
  8
PATTERN_2542__2_
  6
DASHED
 62
    15
 10
0.036
 20
0.0
 30
0.0
 11
1.125
 21
0.0
 31
0.0
  0
LINE
  5
4C
  8
PATTERN_2542__2_
  6
DASHED
 62
    15
 10
1.125
 20
0.843
 30
0.0
 11
0.613
 21
0.843
 31
0.0
  0
LINE
  5
4D
  8
PATTERN_2542__2_
  6
CONTINUOUS
 62
    15
 10
0.583
 20
0.968
 30
0.0
 11
0.583
 21
0.873
 31
0.0
  0
LINE
  5
4E
  8
PATTERN_2542__2_
  6
CONTINUOUS
 62
    15
 10
0.0
 20
-0.03
 30
0.0
 11
0.0
 21
-0.1250000000000001
 31
0.0
  0
LINE
  5
4F
  8
PATTERN_2542__2_
  6
CONTINUOUS
 62
    15
 10
0.0
 20
-0.125
 30
0.0
 11
0.25
 21
-0.125
 31
0.0
  0
LINE
  5
50
  8
PATTERN_2542__2_
  6
CONTINUOUS
 62
    15
 10
0.833
 20
0.968
 30
0.0
 11
0.583
 21
0.968
 31
0.0
  0
LINE
  5
51
  8
PATTERN_2542__2_
  6
CONTINUOUS
 62
     3
 10
0.583
 20
0.843
 30
0.0
 11
0.583
 21
0.761
 31
0.0
  0
LINE
  5
52
  8
PATTERN_2542__2_
  6
CONTINUOUS
 62
     3
 10
0.0
 20
0.4779999999999999
 30
0.0
 11
0.0
 21
0.0
 31
0.0
  0
LINE
  5
53
  8
PATTERN_2542__2_
  6
CONTINUOUS
 62
     3
 10
0.5419999999999999
 20
0.721
 30
0.0
 11
0.5429999999999999
 21
0.721
 31
0.0
  0
LINE
  5
54
  8
PATTERN_2542__2_
  6
CONTINUOUS
 62
     3
 10
0.363
 20
0.64
 30
0.0
 11
0.3889999999999999
 21
0.64
 31
0.0
  0
LINE
  5
55
  8
PATTERN_2542__2_
  6
CONTINUOUS
 62
     3
 10
0.084
 20
0.5619999999999999
 30
0.0
 11
0.1600615856965467
 21
0.5619999999999999
 31
0.0
  0
ARC
  5
56
  8
PATTERN_2542__2_
  6
CONTINUOUS
 62
     3
 10
0.5419999999999999
 20
0.576
 30
0.0
 40
0.145
 50
90.0
 51
145.7945420618953
  0
ARC
  5
57
  8
PATTERN_2542__2_
  6
CONTINUOUS
 62
     3
 10
0.3889999999999999
 20
0.6799999999999999
 30
0.0
 40
0.04
 50
270.0
 51
325.7945420618951
  0
ARC
  5
58
  8
PATTERN_2542__2_
  6
CONTINUOUS
 62
     3
 10
0.5429999999999999
 20
0.761
 30
0.0
 40
0.04
 50
270.0
 51
0.0
  0
ARC
  5
59
  8
PATTERN_2542__2_
  6
CONTINUOUS
 62
     3
 10
0.1600615856965467
 20
0.602
 30
0.0
 40
0.04
 50
270.0
 51
312.0488330379572
  0
ARC
  5
5A
  8
PATTERN_2542__2_
  6
CONTINUOUS
 62
     3
 10
0.363
 20
0.377
 30
0.0
 40
0.263
 50
90.00000000000001
 51
132.0488330379575
  0
ARC
  5
5B
  8
PATTERN_2542__2_
  6
CONTINUOUS
 62
     3
 10
0.084
 20
0.4779999999999999
 30
0.0
 40
0.084
 50
90.00000000000001
 51
180.0
  0
VIEWPORT
  5
5E
 67
     1
  8
0
 62
    15
 10
5.25
 20
4.0
 30
0.0
 40
11.638
 41
8.993
 68
     1
 69
     1
1001
ACAD
1000
MVIEW
1002
{
1070
    16
1010
0.0
1020
0.0
1030
0.0
1020
0.0
1030
0.0
1010
0.0
1020
0.0
1030
1.0
1020
0.0
1030
1.0
1040
0.0
1040
8.993
1040
5.25
1040
4.0
1040
50.0
1040
0.0
1040
0.0
1070
     0
1070
   100
1070
     0
1070
     3
1070
     0
1070
     0
1070
     0
1070
     0
1040
0.0
1040
0.0
1040
0.0
1040
0.5
1040
0.5
1040
0.5
1040
0.5
1070
     0
1002
{
1002
}
1002
}
  0
ENDSEC
  0
EOF
