  0
SECTION
  2
HEADER
  9
$ACADVER
  1
AC1012
  9
$DWGCODEPAGE
  3
dos850
  9
$INSBASE
 10
0.0
 20
0.0
 30
0.0
  9
$EXTMIN
 10
-1.3687764761
 20
0.025205712
 30
0.0
  9
$EXTMAX
 10
1.9791754774
 20
2.3083818069
 30
0.0
  9
$LIMMIN
 10
0.0
 20
0.0
  9
$LIMMAX
 10
0.0
 20
0.0
  9
$ORTHOMODE
 70
         0
  9
$REGENMODE
 70
         1
  9
$FILLMODE
 70
         1
  9
$QTEXTMODE
 70
         0
  9
$MIRRTEXT
 70
         1
  9
$DRAGMODE
 70
         2
  9
$LTSCALE
 40
1.0
  9
$OSMODE
 70
         0
  9
$ATTMODE
 70
         1
  9
$TEXTSIZE
 40
0.125
  9
$TRACEWID
 40
0.05
  9
$TEXTSTYLE
  7
STANDARD
  9
$CLAYER
  8
0
  9
$CELTYPE
  6
CONTINUOUS
  9
$CECOLOR
 62
        15
  9
$CELTSCALE
 40
1.0
  9
$DELOBJ
 70
         1
  9
$DISPSILH
 70
         0
  9
$DIMSCALE
 40
1.0
  9
$DIMASZ
 40
0.18
  9
$DIMEXO
 40
0.0625
  9
$DIMDLI
 40
0.38
  9
$DIMRND
 40
0.0
  9
$DIMDLE
 40
0.0
  9
$DIMEXE
 40
0.25
  9
$DIMTP
 40
0.01
  9
$DIMTM
 40
-0.01
  9
$DIMTXT
 40
0.125
  9
$DIMCEN
 40
0.09
  9
$DIMTSZ
 40
0.0
  9
$DIMTOL
 70
         0
  9
$DIMLIM
 70
         0
  9
$DIMTIH
 70
         1
  9
$DIMTOH
 70
         1
  9
$DIMSE1
 70
         0
  9
$DIMSE2
 70
         0
  9
$DIMTAD
 70
         0
  9
$DIMZIN
 70
         0
  9
$DIMBLK
  1

  9
$DIMASO
 70
         1
  9
$DIMSHO
 70
         1
  9
$DIMPOST
  1

  9
$DIMAPOST
  1

  9
$DIMALT
 70
         0
  9
$DIMALTD
 70
         2
  9
$DIMALTF
 40
25.4
  9
$DIMLFAC
 40
1.0
  9
$DIMTOFL
 70
         0
  9
$DIMTVP
 40
0.0
  9
$DIMTIX
 70
         0
  9
$DIMSOXD
 70
         0
  9
$DIMSAH
 70
         0
  9
$DIMBLK1
  1

  9
$DIMBLK2
  1

  9
$DIMSTYLE
  2
STANDARD
  9
$DIMCLRD
 70
         0
  9
$DIMCLRE
 70
         0
  9
$DIMCLRT
 70
        15
  9
$DIMTFAC
 40
1.0
  9
$DIMGAP
 40
0.09
  9
$DIMJUST
 70
         0
  9
$DIMSD1
 70
         0
  9
$DIMSD2
 70
         0
  9
$DIMTOLJ
 70
         1
  9
$DIMTZIN
 70
         0
  9
$DIMALTZ
 70
         0
  9
$DIMALTTZ
 70
         0
  9
$DIMFIT
 70
         3
  9
$DIMUPT
 70
         0
  9
$DIMUNIT
 70
         2
  9
$DIMDEC
 70
         4
  9
$DIMTDEC
 70
         4
  9
$DIMALTU
 70
         2
  9
$DIMALTTD
 70
         2
  9
$DIMTXSTY
  7
STANDARD
  9
$DIMAUNIT
 70
         0
  9
$LUNITS
 70
         2
  9
$LUPREC
 70
        10
  9
$SKETCHINC
 40
0.1
  9
$FILLETRAD
 40
0.0
  9
$AUNITS
 70
         0
  9
$AUPREC
 70
         0
  9
$MENU
  1
acad
  9
$ELEVATION
 40
0.0
  9
$PELEVATION
 40
0.0
  9
$THICKNESS
 40
0.0
  9
$LIMCHECK
 70
         0
  9
$BLIPMODE
 70
         1
  9
$CHAMFERA
 40
0.0
  9
$CHAMFERB
 40
0.0
  9
$CHAMFERC
 40
0.0
  9
$CHAMFERD
 40
0.0
  9
$SKPOLY
 70
         0
  9
$TDCREATE
 40
0.000000000
  9
$TDUPDATE
 40
0.000000000
  9
$TDINDWG
 40
0.0000000000
  9
$TDUSRTIMER
 40
0.0000000000
  9
$USRTIMER
 70
         1
  9
$ANGBASE
 50
0.0
  9
$ANGDIR
 70
         0
  9
$PDMODE
 70
         2
  9
$PDSIZE
 40
0.0
  9
$PLINEWID
 40
0.0
  9
$COORDS
 70
         0
  9
$SPLFRAME
 70
         0
  9
$SPLINETYPE
 70
         6
  9
$SPLINESEGS
 70
         8
  9
$ATTDIA
 70
         0
  9
$ATTREQ
 70
         1
  9
$HANDLING
 70
         1
  9
$HANDSEED
  5
4C
  9
$SURFTAB1
 70
         6
  9
$SURFTAB2
 70
         6
  9
$SURFTYPE
 70
         6
  9
$SURFU
 70
         6
  9
$SURFV
 70
         6
  9
$UCSNAME
  2

  9
$UCSORG
 10
0.0
 20
0.0
 30
0.0
  9
$UCSXDIR
 10
1.0
 20
0.0
 30
0.0
  9
$UCSYDIR
 10
0.0
 20
1.0
 30
0.0
  9
$PUCSNAME
  2

  9
$PUCSORG
 10
0.0
 20
0.0
 30
0.0
  9
$PUCSXDIR
 10
1.0
 20
0.0
 30
0.0
  9
$PUCSYDIR
 10
0.0
 20
1.0
 30
0.0
  9
$USERI1
 70
         0
  9
$USERI2
 70
         0
  9
$USERI3
 70
         0
  9
$USERI4
 70
         0
  9
$USERI5
 70
         0
  9
$USERR1
 40
0.0
  9
$USERR2
 40
0.0
  9
$USERR3
 40
0.0
  9
$USERR4
 40
0.0
  9
$USERR5
 40
0.0
  9
$WORLDVIEW
 70
         1
  9
$SHADEDGE
 70
         3
  9
$SHADEDIF
 70
        70
  9
$TILEMODE
 70
         1
  9
$MAXACTVP
 70
        16
  9
$PINSBASE
 10
0.0
 20
0.0
 30
0.0
  9
$PLIMCHECK
 70
         0
  9
$PEXTMIN
 10
1.0000000000E+20
 20
1.0000000000E+20
 30
1.0000000000E+20
  9
$PEXTMAX
 10
-1.0000000000E+20
 20
-1.0000000000E+20
 30
-1.0000000000E+20
  9
$PLIMMIN
 10
0.0
 20
0.0
  9
$PLIMMAX
 10
12.0
 20
9.0
  9
$UNITMODE
 70
         0
  9
$VISRETAIN
 70
         0
  9
$PLINEGEN
 70
         1
  9
$PSLTSCALE
 70
         0
  9
$TREEDEPTH
 70
      3020
  9
$PICKSTYLE
 70
         1
  9
$CMLSTYLE
  2
STANDARD
  9
$CMLJUST
 70
         0
  9
$CMLSCALE
 40
1.0
  9
$SAVEIMAGES
 70
         0
  0
ENDSEC
  0
SECTION
  2
CLASSES
  0
CLASS
  1
LWPOLYLINE
  2
AcDbPolyline
  3
"AutoCAD"
 90
        0
280
         0
281
         1
  0
CLASS
  1
IMAGE
  2
AcDbRasterImage
  3
ISM
 90
      127
280
         0
281
         1
  0
CLASS
  1
OLE2FRAME
  2
AcDbOle2Frame
  3
""
 90
        0
280
         0
281
         1
  0
CLASS
  1
HATCH
  2
AcDbHatch
  3
"ACAD_SEDONA"
 90
        0
280
         0
281
         1
  0
CLASS
  1
DICTIONARYVAR
  2
AcDbDictionaryVar
  3
"AutoCAD"
 90
        0
280
         0
281
         0
  0
CLASS
  1
RASTERVARIABLES
  2
AcDbRasterVariables
  3
ISM
 90
        0
280
         0
281
         0
  0
CLASS
  1
IMAGEDEF
  2
AcDbRasterImageDef
  3
ISM
 90
        0
280
         0
281
         0
  0
CLASS
  1
IMAGEDEF_REACTOR
  2
AcDbRasterImageDefReactor
  3
ISM
 90
        1
280
         0
281
         0
  0
CLASS
  1
IDBUFFER
  2
AcDbIdBuffer
  3
"Acad"
 90
        0
280
         0
281
         0
  0
CLASS
  1
SPATIAL_FILTER
  2
AcDbSpatialFilter
  3
"Acad"
 90
        0
280
         0
281
         0
  0
CLASS
  1
XRECORD
  2
AcDbXrecord
  3
"<Built In>"
 90
        0
280
         0
281
         0
  0
CLASS
  1
SORTENTSTABLE
  2
AcDbSortentsTable
  3
"AutoCAD"
 90
        0
280
         0
281
         0
  0
CLASS
  1
LAYER_INDEX
  2
AcDbLayerIndex
  3
"Acad"
 90
        0
280
         0
281
         0
  0
CLASS
  1
SPATIAL_INDEX
  2
AcDbSpatialIndex
  3
"Acad"
 90
        0
280
         0
281
         0
  0
CLASS
  1
OBJECT_PTR
  2
CAseDLPNTableRecord
  3
"ASE-LPNTableRecord"
 90
        1
280
         0
281
         0
  0
ENDSEC
  0
SECTION
  2
TABLES
  0
TABLE
  2
VPORT
  5
7
100
AcDbSymbolTable
 70
         1
  0
VPORT
  5
15
100
AcDbSymbolTableRecord
100
AcDbViewportTableRecord
  2
*ACTIVE
 70
         0
 10
0.0
 20
0.0
 11
1.0
 21
1.0
 12
0.3051995007
 22
1.1667937594
 13
0.0
 23
0.0
 14
1.0
 24
1.0
 15
0.0
 25
0.0
 16
0.0
 26
0.0
 36
1.0
 17
0.0
 27
0.0
 37
0.0
 40
2.2831760949
 41
1.4663573086
 42
50.0
 43
0.0
 44
0.0
 50
0.0
 51
0.0
 71
         0
 72
       100
 73
         1
 74
         1
 75
         0
 76
         0
 77
         0
 78
         0
  0
ENDTAB
  0
TABLE
  2
LTYPE
  5
4
100
AcDbSymbolTable
 70
         6
  0
LTYPE
  5
11
100
AcDbSymbolTableRecord
100
AcDbLinetypeTableRecord
  2
BYBLOCK
 70
         0
  3

 72
        65
 73
         0
 40
0.0
  0
LTYPE
  5
12
100
AcDbSymbolTableRecord
100
AcDbLinetypeTableRecord
  2
BYLAYER
 70
         0
  3

 72
        65
 73
         0
 40
0.0
  0
LTYPE
  5
13
100
AcDbSymbolTableRecord
100
AcDbLinetypeTableRecord
  2
CONTINUOUS
 70
         0
  3
Solid line
 72
        65
 73
         0
 40
0.0
  0
LTYPE
  5
1D
100
AcDbSymbolTableRecord
100
AcDbLinetypeTableRecord
  2
DASHED
 70
         0
  3
_ _ _ _ _ _ _ _ _ _ _ _ _ _ _ _
 72
        65
 73
         2
 40
0.2
 49
0.1
 74
         0
 49
-0.1
 74
         0
  0
LTYPE
  5
1E
100
AcDbSymbolTableRecord
100
AcDbLinetypeTableRecord
  2
CENTER
 70
         0
  3
___ _ ___ _ ___ _ ___ _ ___ _ ___ _ ___ _ ___ _
 72
        65
 73
         4
 40
0.95
 49
0.625
 74
         0
 49
-0.125
 74
         0
 49
0.075
 74
         0
 49
-0.125
 74
         0
  0
LTYPE
  5
1F
100
AcDbSymbolTableRecord
100
AcDbLinetypeTableRecord
  2
PHANTOM
 70
         0
  3
______  __  __  ______  __  __  ______  __  __  
 72
        65
 73
         6
 40
1.025
 49
0.625
 74
         0
 49
-0.125
 74
         0
 49
0.075
 74
         0
 49
-0.125
 74
         0
 49
0.075
 74
         0
 49
-0.125
 74
         0
  0
ENDTAB
  0
TABLE
  2
LAYER
  5
2
100
AcDbSymbolTable
 70
        11
  0
LAYER
  5
14
100
AcDbSymbolTableRecord
100
AcDbLayerTableRecord
  2
0
 70
         0
 62
         7
  6
CONTINUOUS
  0
LAYER
  5
21
100
AcDbSymbolTableRecord
100
AcDbLayerTableRecord
  2
CK_LEVEL_1
 70
         0
 62
         7
  6
CONTINUOUS
  0
LAYER
  5
22
100
AcDbSymbolTableRecord
100
AcDbLayerTableRecord
  2
CK_LEVEL_2
 70
         0
 62
         7
  6
CONTINUOUS
  0
LAYER
  5
23
100
AcDbSymbolTableRecord
100
AcDbLayerTableRecord
  2
CK_LEVEL_3
 70
         0
 62
         7
  6
CONTINUOUS
  0
LAYER
  5
24
100
AcDbSymbolTableRecord
100
AcDbLayerTableRecord
  2
CK_LEVEL_4
 70
         0
 62
         7
  6
CONTINUOUS
  0
LAYER
  5
25
100
AcDbSymbolTableRecord
100
AcDbLayerTableRecord
  2
CK_LEVEL_5
 70
         0
 62
         7
  6
CONTINUOUS
  0
LAYER
  5
26
100
AcDbSymbolTableRecord
100
AcDbLayerTableRecord
  2
CK_LEVEL_6
 70
         0
 62
         7
  6
CONTINUOUS
  0
LAYER
  5
27
100
AcDbSymbolTableRecord
100
AcDbLayerTableRecord
  2
CK_LEVEL_7
 70
         0
 62
         7
  6
CONTINUOUS
  0
LAYER
  5
28
100
AcDbSymbolTableRecord
100
AcDbLayerTableRecord
  2
CK_LEVEL_8
 70
         0
 62
         7
  6
CONTINUOUS
  0
LAYER
  5
29
100
AcDbSymbolTableRecord
100
AcDbLayerTableRecord
  2
CK_LEVEL_9
 70
         0
 62
         7
  6
CONTINUOUS
  0
LAYER
  5
2A
100
AcDbSymbolTableRecord
100
AcDbLayerTableRecord
  2
CK_LEVEL_10
 70
         0
 62
         7
  6
CONTINUOUS
  0
ENDTAB
  0
TABLE
  2
STYLE
  5
3
100
AcDbSymbolTable
 70
         1
  0
STYLE
  5
17
100
AcDbSymbolTableRecord
100
AcDbTextStyleTableRecord
  2
STANDARD
 70
         0
 40
0.0
 41
1.0
 50
0.0
 71
         0
 42
0.0
  3
txt
  4

  0
ENDTAB
  0
TABLE
  2
VIEW
  5
5
100
AcDbSymbolTable
 70
         0
  0
ENDTAB
  0
TABLE
  2
UCS
  5
6
100
AcDbSymbolTable
 70
         1
  0
UCS
  5
20
100
AcDbSymbolTableRecord
100
AcDbUCSTableRecord
  2
CK_VIEW_1
 70
         0
 10
0.0
 20
0.0
 30
1.0
 11
1.0
 21
0.0
 31
0.0
 12
0.0
 22
1.0
 32
0.0
  0
ENDTAB
  0
TABLE
  2
APPID
  5
8
100
AcDbSymbolTable
 70
         1
  0
APPID
  5
16
100
AcDbSymbolTableRecord
100
AcDbRegAppTableRecord
  2
ACAD
 70
         0
  0
ENDTAB
  0
TABLE
  2
DIMSTYLE
  5
9
100
AcDbSymbolTable
 70
         1
  0
DIMSTYLE
105
18
100
AcDbSymbolTableRecord
100
AcDbDimStyleTableRecord
  2
STANDARD
 70
         0
  3

  4

  5

  6

  7

 40
1.0
 41
0.18
 42
0.0625
 43
0.38
 44
0.18
 45
0.0
 46
0.0
 47
0.0
 48
0.0
140
0.18
141
0.09
142
0.0
143
25.4
144
1.0
145
0.0
146
1.0
147
0.09
 71
         0
 72
         0
 73
         1
 74
         1
 75
         0
 76
         0
 77
         0
 78
         0
170
         0
171
         2
172
         0
173
         0
174
         0
175
         0
176
         0
177
         0
178
         0
270
         2
271
         4
272
         4
273
         2
274
         2
340
17
275
         0
280
         0
281
         0
282
         0
283
         1
284
         0
285
         0
286
         0
287
         0
288
         0
  0
ENDTAB
  0
TABLE
  2
BLOCK_RECORD
  5
1
100
AcDbSymbolTable
 70
         0
  0
BLOCK_RECORD
  5
A
100
AcDbSymbolTableRecord
100
AcDbBlockTableRecord
  2
*MODEL_SPACE
  0
BLOCK_RECORD
  5
B
100
AcDbSymbolTableRecord
100
AcDbBlockTableRecord
  2
*PAPER_SPACE
  0
ENDTAB
  0
ENDSEC
  0
SECTION
  2
BLOCKS
  0
BLOCK
  5
D
100
AcDbEntity
  8
0
100
AcDbBlockBegin
  2
*MODEL_SPACE
 70
         0
 10
0.0
 20
0.0
 30
0.0
  3
*MODEL_SPACE
  1

  0
ENDBLK
  5
E
100
AcDbEntity
  8
0
100
AcDbBlockEnd
  0
BLOCK
  5
F
100
AcDbEntity
 67
         1
  8
0
100
AcDbBlockBegin
  2
*PAPER_SPACE
 70
         0
 10
0.0
 20
0.0
 30
0.0
  3
*PAPER_SPACE
  1

  0
ENDBLK
  5
10
100
AcDbEntity
 67
         1
  8
0
100
AcDbBlockEnd
  0
ENDSEC
  0
SECTION
  2
ENTITIES
  0
ARC
  5
2B
100
AcDbEntity
  8
CK_LEVEL_10
  6
CONTINUOUS
 62
       121
100
AcDbCircle
 10
0.827
 20
1.1131639713
 30
0.0
 40
0.188
100
AcDbArc
 50
285.3279019812
 51
360.000247763
  0
LINE
  5
2C
100
AcDbEntity
  8
CK_LEVEL_10
  6
CONTINUOUS
 62
       121
100
AcDbLine
 10
1.0149975729
 20
1.6744394064
 30
0.0
 11
1.0334031582
 21
1.6744394064
 31
0.0
  0
ARC
  5
2D
100
AcDbEntity
  8
CK_LEVEL_2
  6
CONTINUOUS
 62
       221
100
AcDbCircle
 10
1.0769958496
 20
0.8631628156
 30
0.0
 40
0.1879999936
100
AcDbArc
 50
285.279079215
 51
360.0
  0
LINE
  5
2E
100
AcDbEntity
  8
CK_LEVEL_2
  6
CONTINUOUS
 62
       221
100
AcDbLine
 10
1.0940444469
 20
0.67290169
 30
0.0
 11
1.1265377998
 21
0.6818078756
 31
0.0
  0
ARC
  5
2F
100
AcDbEntity
  8
CK_LEVEL_2
  6
CONTINUOUS
 62
       221
100
AcDbCircle
 10
1.1004000902
 20
0.6497585177
 30
0.0
 40
0.0240000002
100
AcDbArc
 50
105.3562143626
 51
153.4233462126
  0
LINE
  5
30
100
AcDbEntity
  8
CK_LEVEL_2
  6
CONTINUOUS
 62
       221
100
AcDbLine
 10
1.0762346983
 20
0.6551554799
 30
0.0
 11
1.0789357424
 21
0.6604961157
 31
0.0
  0
ARC
  5
31
100
AcDbEntity
  8
CK_LEVEL_2
  6
CONTINUOUS
 62
       221
100
AcDbCircle
 10
0.9780745506
 20
0.7048000097
 30
0.0
 40
0.1099999994
100
AcDbArc
 50
270.0000006832
 51
333.1719900148
  0
LINE
  5
32
100
AcDbEntity
  8
CK_LEVEL_2
  6
CONTINUOUS
 62
       221
100
AcDbLine
 10
0.9780745506
 20
0.5947999954
 30
0.0
 11
0.9103467464
 21
0.5947999954
 31
0.0
  0
ARC
  5
33
100
AcDbEntity
  8
CK_LEVEL_2
  6
CONTINUOUS
 62
       221
100
AcDbCircle
 10
0.9101797342
 20
0.1268000305
 30
0.0
 40
0.4679999948
100
AcDbArc
 50
89.9795529181
 51
125.0857314594
  0
LINE
  5
34
100
AcDbEntity
  8
CK_LEVEL_2
  6
CONTINUOUS
 62
       221
100
AcDbLine
 10
0.6158396602
 20
0.4919908345
 30
0.0
 11
0.6411725879
 21
0.5097611547
 31
0.0
  0
ARC
  5
35
100
AcDbEntity
  8
CK_LEVEL_2
  6
CONTINUOUS
 62
       221
100
AcDbCircle
 10
0.2928261757
 20
0.9518890977
 30
0.0
 40
0.5619999766
100
AcDbArc
 50
270.7168153763
 51
305.0826116569
  0
LINE
  5
36
100
AcDbEntity
  8
CK_LEVEL_2
  6
CONTINUOUS
 62
       221
100
AcDbLine
 10
-0.1730041568
 20
0.3841481125
 30
0.0
 11
0.2998569906
 21
0.3899331093
 31
0.0
  0
LINE
  5
37
100
AcDbEntity
  8
CK_LEVEL_10
  6
CONTINUOUS
 62
       121
100
AcDbLine
 10
1.0149975729
 20
1.6744394064
 30
0.0
 11
1.015
 21
1.1131647843
 31
0.0
  0
LINE
  5
38
100
AcDbEntity
  8
CK_LEVEL_10
  6
CONTINUOUS
 62
       121
100
AcDbLine
 10
0.8440444469
 20
0.92290169
 30
0.0
 11
0.8766964352
 21
0.9318513564
 31
0.0
  0
ARC
  5
39
100
AcDbEntity
  8
CK_LEVEL_10
  6
CONTINUOUS
 62
       121
100
AcDbCircle
 10
0.8504000902
 20
0.8997585177
 30
0.0
 40
0.0240000002
100
AcDbArc
 50
105.3562143626
 51
153.4233462126
  0
LINE
  5
3A
100
AcDbEntity
  8
CK_LEVEL_10
  6
CONTINUOUS
 62
       121
100
AcDbLine
 10
0.8262346983
 20
0.9051554799
 30
0.0
 11
0.8289357424
 21
0.9104961157
 31
0.0
  0
ARC
  5
3B
100
AcDbEntity
  8
CK_LEVEL_10
  6
CONTINUOUS
 62
       121
100
AcDbCircle
 10
0.7280745506
 20
0.9548000097
 30
0.0
 40
0.1099999994
100
AcDbArc
 50
270.0000006832
 51
333.1719900148
  0
LINE
  5
3C
100
AcDbEntity
  8
CK_LEVEL_10
  6
CONTINUOUS
 62
       121
100
AcDbLine
 10
0.7280745506
 20
0.8447999954
 30
0.0
 11
0.6603467464
 21
0.8447999954
 31
0.0
  0
ARC
  5
3D
100
AcDbEntity
  8
CK_LEVEL_10
  6
CONTINUOUS
 62
       121
100
AcDbCircle
 10
0.6601797342
 20
0.3768000305
 30
0.0
 40
0.4679999948
100
AcDbArc
 50
89.9795529181
 51
125.0857314594
  0
LINE
  5
3E
100
AcDbEntity
  8
CK_LEVEL_10
  6
CONTINUOUS
 62
       121
100
AcDbLine
 10
0.3658396602
 20
0.7419908345
 30
0.0
 11
0.3911725879
 21
0.7597611547
 31
0.0
  0
ARC
  5
3F
100
AcDbEntity
  8
CK_LEVEL_10
  6
CONTINUOUS
 62
       121
100
AcDbCircle
 10
0.0428261757
 20
1.2018890977
 30
0.0
 40
0.5619999766
100
AcDbArc
 50
270.7168153763
 51
305.0826116569
  0
LINE
  5
40
100
AcDbEntity
  8
CK_LEVEL_10
  6
CONTINUOUS
 62
       121
100
AcDbLine
 10
-1.2165968418
 20
0.6244392693
 30
0.0
 11
0.0498569906
 21
0.6399331093
 31
0.0
  0
LINE
  5
41
100
AcDbEntity
  8
CK_LEVEL_10
  6
CONTINUOUS
 62
       121
100
AcDbLine
 10
-1.2165968418
 20
2.0744394064
 30
0.0
 11
1.0334031582
 21
2.0744394064
 31
0.0
  0
LINE
  5
42
100
AcDbEntity
  8
CK_LEVEL_10
  6
CONTINUOUS
 62
       121
100
AcDbLine
 10
1.0334031582
 20
1.6744394064
 30
0.0
 11
1.0334031582
 21
2.0744394064
 31
0.0
  0
LINE
  5
43
100
AcDbEntity
  8
CK_LEVEL_10
  6
CONTINUOUS
 62
       121
100
AcDbLine
 10
-1.2165968418
 20
0.6244392693
 30
0.0
 11
-1.2165968418
 21
2.0744394064
 31
0.0
  0
LINE
  5
44
100
AcDbEntity
  8
CK_LEVEL_2
  6
DASHED
 62
         4
100
AcDbLine
 10
-0.1730041568
 20
0.2591481125
 30
0.0
 11
-0.1730041568
 21
0.3341481125
 31
0.0
  0
LINE
  5
45
100
AcDbEntity
  8
CK_LEVEL_2
  6
DASHED
 62
         4
100
AcDbLine
 10
1.8269958432
 20
0.2591481125
 30
0.0
 11
-0.1730041568
 21
0.2591481125
 31
0.0
  0
LINE
  5
46
100
AcDbEntity
  8
CK_LEVEL_2
  6
DASHED
 62
         4
100
AcDbLine
 10
1.8269958432
 20
0.7591481125
 30
0.0
 11
1.2836002529
 21
0.7591481125
 31
0.0
  0
LINE
  5
47
100
AcDbEntity
  8
CK_LEVEL_2
  6
DASHED
 62
         4
100
AcDbLine
 10
1.8269958432
 20
0.8841481125
 30
0.0
 11
1.3149958432
 21
0.8841481125
 31
0.0
  0
LINE
  5
48
100
AcDbEntity
  8
CK_LEVEL_2
  6
CONTINUOUS
 62
       221
100
AcDbLine
 10
1.2649958432
 20
0.8631628156
 30
0.0
 11
1.2649958432
 21
0.9471481125
 31
0.0
  0
LINE
  5
49
100
AcDbEntity
  8
CK_LEVEL_2
  6
DASHED
 62
         4
100
AcDbLine
 10
1.8269958432
 20
0.9471481125
 30
0.0
 11
1.3149958432
 21
0.9471481125
 31
0.0
  0
ENDSEC
  0
SECTION
  2
OBJECTS
  0
DICTIONARY
  5
19
100
AcDbDictionary
  3
ACAD_GROUP
350
1A
  3
ACAD_MLINESTYLE
350
1B
  0
DICTIONARY
  5
1A
102
{ACAD_REACTORS
330
19
102
}
100
AcDbDictionary
  0
DICTIONARY
  5
1B
102
{ACAD_REACTORS
330
19
102
}
100
AcDbDictionary
  3
STANDARD
350
1C
  0
MLINESTYLE
  5
1C
102
{ACAD_REACTORS
330
1B
102
}
100
AcDbMlineStyle
  2
STANDARD
 70
         0
  3

 62
         0
 51
90.0
 52
90.0
 71
         2
 49
0.5
 62
       256
  6
BYLAYER
 49
-0.5
 62
       256
  6
BYLAYER
  0
ENDSEC
  0
EOF
