  0
SECTION
  2
HEADER
  9
$ACADVER
  1
AC1015
  9
$ACADMAINTVER
 70
     6
  9
$DWGCODEPAGE
  3
ANSI_1252
  9
$INSBASE
 10
0.0
 20
0.0
 30
0.0
  9
$EXTMIN
 10
1.000000000000000E+20
 20
1.000000000000000E+20
 30
1.000000000000000E+20
  9
$EXTMAX
 10
-1.000000000000000E+20
 20
-1.000000000000000E+20
 30
-1.000000000000000E+20
  9
$LIMMIN
 10
0.0
 20
0.0
  9
$LIMMAX
 10
12.0
 20
9.0
  9
$ORTHOMODE
 70
     0
  9
$REGENMODE
 70
     1
  9
$FILLMODE
 70
     1
  9
$QTEXTMODE
 70
     0
  9
$MIRRTEXT
 70
     1
  9
$LTSCALE
 40
1.0
  9
$ATTMODE
 70
     1
  9
$TEXTSIZE
 40
0.125
  9
$TRACEWID
 40
0.05
  9
$TEXTSTYLE
  7
Standard
  9
$CLAYER
  8
0
  9
$CELTYPE
  6
ByLayer
  9
$CECOLOR
 62
    15
  9
$CELTSCALE
 40
1.0
  9
$DISPSILH
 70
     0
  9
$DIMSCALE
 40
1.0
  9
$DIMASZ
 40
0.18
  9
$DIMEXO
 40
0.0625
  9
$DIMDLI
 40
0.38
  9
$DIMRND
 40
0.0
  9
$DIMDLE
 40
0.0
  9
$DIMEXE
 40
0.045
  9
$DIMTP
 40
0.01
  9
$DIMTM
 40
-0.01
  9
$DIMTXT
 40
0.125
  9
$DIMCEN
 40
0.09
  9
$DIMTSZ
 40
0.0
  9
$DIMTOL
 70
     0
  9
$DIMLIM
 70
     0
  9
$DIMTIH
 70
     1
  9
$DIMTOH
 70
     1
  9
$DIMSE1
 70
     0
  9
$DIMSE2
 70
     0
  9
$DIMTAD
 70
     0
  9
$DIMZIN
 70
     0
  9
$DIMBLK
  1

  9
$DIMASO
 70
     1
  9
$DIMSHO
 70
     1
  9
$DIMPOST
  1

  9
$DIMAPOST
  1

  9
$DIMALT
 70
     0
  9
$DIMALTD
 70
     2
  9
$DIMALTF
 40
25.4
  9
$DIMLFAC
 40
1.0
  9
$DIMTOFL
 70
     0
  9
$DIMTVP
 40
0.0
  9
$DIMTIX
 70
     0
  9
$DIMSOXD
 70
     0
  9
$DIMSAH
 70
     0
  9
$DIMBLK1
  1

  9
$DIMBLK2
  1

  9
$DIMSTYLE
  2
Standard
  9
$DIMCLRD
 70
     0
  9
$DIMCLRE
 70
     0
  9
$DIMCLRT
 70
     0
  9
$DIMTFAC
 40
0.75
  9
$DIMGAP
 40
0.09
  9
$DIMJUST
 70
     0
  9
$DIMSD1
 70
     0
  9
$DIMSD2
 70
     0
  9
$DIMTOLJ
 70
     1
  9
$DIMTZIN
 70
     0
  9
$DIMALTZ
 70
     0
  9
$DIMALTTZ
 70
     0
  9
$DIMUPT
 70
     0
  9
$DIMDEC
 70
     4
  9
$DIMTDEC
 70
     4
  9
$DIMALTU
 70
     2
  9
$DIMALTTD
 70
     2
  9
$DIMTXSTY
  7
Standard
  9
$DIMAUNIT
 70
     0
  9
$DIMADEC
 70
     0
  9
$DIMALTRND
 40
0.0
  9
$DIMAZIN
 70
     0
  9
$DIMDSEP
 70
    46
  9
$DIMATFIT
 70
     3
  9
$DIMFRAC
 70
     0
  9
$DIMLDRBLK
  1

  9
$DIMLUNIT
 70
     2
  9
$DIMLWD
 70
    -2
  9
$DIMLWE
 70
    -2
  9
$DIMTMOVE
 70
     0
  9
$LUNITS
 70
     2
  9
$LUPREC
 70
     8
  9
$SKETCHINC
 40
0.1
  9
$FILLETRAD
 40
0.5
  9
$AUNITS
 70
     0
  9
$AUPREC
 70
     0
  9
$MENU
  1
.
  9
$ELEVATION
 40
0.0
  9
$PELEVATION
 40
0.0
  9
$THICKNESS
 40
0.0
  9
$LIMCHECK
 70
     0
  9
$CHAMFERA
 40
0.5
  9
$CHAMFERB
 40
0.5
  9
$CHAMFERC
 40
1.0
  9
$CHAMFERD
 40
0.0
  9
$SKPOLY
 70
     0
  9
$TDCREATE
 40
2453892.395136887
  9
$TDUCREATE
 40
2453892.686803553
  9
$TDUPDATE
 40
2453892.395136898
  9
$TDUUPDATE
 40
2453892.686803565
  9
$TDINDWG
 40
0.0000000116
  9
$TDUSRTIMER
 40
0.0000000116
  9
$USRTIMER
 70
     1
  9
$ANGBASE
 50
0.0
  9
$ANGDIR
 70
     0
  9
$PDMODE
 70
     2
  9
$PDSIZE
 40
0.03
  9
$PLINEWID
 40
0.0
  9
$SPLFRAME
 70
     0
  9
$SPLINETYPE
 70
     6
  9
$SPLINESEGS
 70
     8
  9
$HANDSEED
  5
26B
  9
$SURFTAB1
 70
     6
  9
$SURFTAB2
 70
     6
  9
$SURFTYPE
 70
     6
  9
$SURFU
 70
     6
  9
$SURFV
 70
     6
  9
$UCSBASE
  2

  9
$UCSNAME
  2

  9
$UCSORG
 10
0.0
 20
0.0
 30
0.0
  9
$UCSXDIR
 10
1.0
 20
0.0
 30
0.0
  9
$UCSYDIR
 10
0.0
 20
1.0
 30
0.0
  9
$UCSORTHOREF
  2

  9
$UCSORTHOVIEW
 70
     0
  9
$UCSORGTOP
 10
0.0
 20
0.0
 30
0.0
  9
$UCSORGBOTTOM
 10
0.0
 20
0.0
 30
0.0
  9
$UCSORGLEFT
 10
0.0
 20
0.0
 30
0.0
  9
$UCSORGRIGHT
 10
0.0
 20
0.0
 30
0.0
  9
$UCSORGFRONT
 10
0.0
 20
0.0
 30
0.0
  9
$UCSORGBACK
 10
0.0
 20
0.0
 30
0.0
  9
$PUCSBASE
  2

  9
$PUCSNAME
  2

  9
$PUCSORG
 10
0.0
 20
0.0
 30
0.0
  9
$PUCSXDIR
 10
1.0
 20
0.0
 30
0.0
  9
$PUCSYDIR
 10
0.0
 20
1.0
 30
0.0
  9
$PUCSORTHOREF
  2

  9
$PUCSORTHOVIEW
 70
     0
  9
$PUCSORGTOP
 10
0.0
 20
0.0
 30
0.0
  9
$PUCSORGBOTTOM
 10
0.0
 20
0.0
 30
0.0
  9
$PUCSORGLEFT
 10
0.0
 20
0.0
 30
0.0
  9
$PUCSORGRIGHT
 10
0.0
 20
0.0
 30
0.0
  9
$PUCSORGFRONT
 10
0.0
 20
0.0
 30
0.0
  9
$PUCSORGBACK
 10
0.0
 20
0.0
 30
0.0
  9
$USERI1
 70
     0
  9
$USERI2
 70
     0
  9
$USERI3
 70
     0
  9
$USERI4
 70
     0
  9
$USERI5
 70
     0
  9
$USERR1
 40
0.0
  9
$USERR2
 40
0.0
  9
$USERR3
 40
0.0
  9
$USERR4
 40
0.0
  9
$USERR5
 40
0.0
  9
$WORLDVIEW
 70
     1
  9
$SHADEDGE
 70
     3
  9
$SHADEDIF
 70
    70
  9
$TILEMODE
 70
     1
  9
$MAXACTVP
 70
    64
  9
$PINSBASE
 10
0.0
 20
0.0
 30
0.0
  9
$PLIMCHECK
 70
     0
  9
$PEXTMIN
 10
1.000000000000000E+20
 20
1.000000000000000E+20
 30
1.000000000000000E+20
  9
$PEXTMAX
 10
-1.000000000000000E+20
 20
-1.000000000000000E+20
 30
-1.000000000000000E+20
  9
$PLIMMIN
 10
-0.25
 20
-0.25
  9
$PLIMMAX
 10
10.75
 20
8.25
  9
$UNITMODE
 70
     0
  9
$VISRETAIN
 70
     1
  9
$PLINEGEN
 70
     0
  9
$PSLTSCALE
 70
     1
  9
$TREEDEPTH
 70
  3020
  9
$CMLSTYLE
  2
Standard
  9
$CMLJUST
 70
     0
  9
$CMLSCALE
 40
1.0
  9
$PROXYGRAPHICS
 70
     1
  9
$MEASUREMENT
 70
     0
  9
$CELWEIGHT
370
    -1
  9
$ENDCAPS
280
     0
  9
$JOINSTYLE
280
     0
  9
$LWDISPLAY
290
     0
  9
$INSUNITS
 70
     1
  9
$HYPERLINKBASE
  1

  9
$STYLESHEET
  1

  9
$XEDIT
290
     1
  9
$CEPSNTYPE
380
     0
  9
$PSTYLEMODE
290
     1
  9
$FINGERPRINTGUID
  2
{F3A80F29-3259-4F1E-AA94-0FB9B2E61CB4}
  9
$VERSIONGUID
  2
{FAEB1C32-E019-11D5-929B-00C0DF256EC4}
  9
$EXTNAMES
290
     1
  9
$PSVPSCALE
 40
0.0
  9
$OLESTARTUP
290
     0
  0
ENDSEC
  0
SECTION
  2
CLASSES
  0
CLASS
  1
ACDBDICTIONARYWDFLT
  2
AcDbDictionaryWithDefault
  3
ObjectDBX Classes
 90
        0
280
     0
281
     0
  0
CLASS
  1
ACDBPLACEHOLDER
  2
AcDbPlaceHolder
  3
ObjectDBX Classes
 90
        0
280
     0
281
     0
  0
CLASS
  1
LAYOUT
  2
AcDbLayout
  3
ObjectDBX Classes
 90
        0
280
     0
281
     0
  0
ENDSEC
  0
SECTION
  2
TABLES
  0
TABLE
  2
VPORT
  5
8
330
0
100
AcDbSymbolTable
 70
     1
  0
VPORT
  5
29
330
8
100
AcDbSymbolTableRecord
100
AcDbViewportTableRecord
  2
*Active
 70
     0
 10
0.0
 20
0.0
 11
1.0
 21
1.0
 12
0.0
 22
0.0
 13
0.0
 23
0.0
 14
0.5
 24
0.5
 15
0.5
 25
0.5
 16
0.0
 26
0.0
 36
1.0
 17
-2.826625195099959
 27
0.1906920720320846
 37
0.0
 40
8.854200334974532
 41
0.8925990028689192
 42
50.0
 43
0.0
 44
0.0
 50
0.0
 51
0.0
 71
     0
 72
 10000
 73
     1
 74
     3
 75
     0
 76
     0
 77
     0
 78
     0
281
     0
 65
     1
110
0.0
120
0.0
130
0.0
111
1.0
121
0.0
131
0.0
112
0.0
122
1.0
132
0.0
 79
     0
146
0.0
  0
ENDTAB
  0
TABLE
  2
LTYPE
  5
5
330
0
100
AcDbSymbolTable
 70
     4
  0
LTYPE
  5
14
330
5
100
AcDbSymbolTableRecord
100
AcDbLinetypeTableRecord
  2
ByBlock
 70
     0
  3

 72
    65
 73
     0
 40
0.0
  0
LTYPE
  5
15
330
5
100
AcDbSymbolTableRecord
100
AcDbLinetypeTableRecord
  2
ByLayer
 70
     0
  3

 72
    65
 73
     0
 40
0.0
  0
LTYPE
  5
16
330
5
100
AcDbSymbolTableRecord
100
AcDbLinetypeTableRecord
  2
Continuous
 70
     0
  3
Solid line
 72
    65
 73
     0
 40
0.0
  0
LTYPE
  5
2A
330
5
100
AcDbSymbolTableRecord
100
AcDbLinetypeTableRecord
  2
DASHED
 70
     0
  3
_ _ _ _ _ _ _ _ _ _ _ _ _ _ _ _
 72
    65
 73
     2
 40
0.2
 49
0.1
 74
     0
 49
-0.1
 74
     0
  0
LTYPE
  5
2B
330
5
100
AcDbSymbolTableRecord
100
AcDbLinetypeTableRecord
  2
CENTER
 70
     0
  3
___ _ ___ _ ___ _ ___ _ ___ _ ___ _ ___ _ ___ _
 72
    65
 73
     4
 40
0.95
 49
0.625
 74
     0
 49
-0.125
 74
     0
 49
0.075
 74
     0
 49
-0.125
 74
     0
  0
LTYPE
  5
2C
330
5
100
AcDbSymbolTableRecord
100
AcDbLinetypeTableRecord
  2
PHANTOM
 70
     0
  3
______  __  __  ______  __  __  ______  __  __  
 72
    65
 73
     6
 40
1.025
 49
0.625
 74
     0
 49
-0.125
 74
     0
 49
0.075
 74
     0
 49
-0.125
 74
     0
 49
0.075
 74
     0
 49
-0.125
 74
     0
  0
ENDTAB
  0
TABLE
  2
LAYER
  5
2
330
0
100
AcDbSymbolTable
 70
     4
  0
LAYER
  5
10
330
2
100
AcDbSymbolTableRecord
100
AcDbLayerTableRecord
  2
0
 70
     0
 62
     7
  6
Continuous
370
    -3
390
F
  0
LAYER
  5
2D
330
2
100
AcDbSymbolTableRecord
100
AcDbLayerTableRecord
  2
Pattern #0518 [1]
 70
     0
 62
    89
  6
Continuous
370
     0
390
F
  0
LAYER
  5
2E
330
2
100
AcDbSymbolTableRecord
100
AcDbLayerTableRecord
  2
_A_ Insert Shaper_ 0° Tilt [5]
 70
     0
 62
    89
  6
Continuous
370
     0
390
F
  0
LAYER
  5
2F
330
2
100
AcDbSymbolTableRecord
100
AcDbLayerTableRecord
  2
CC-60401-0 Strip [REF] [12]
 70
     0
 62
    89
  6
Continuous
370
     0
390
F
  0
ENDTAB
  0
TABLE
  2
STYLE
  5
3
330
0
100
AcDbSymbolTable
 70
     1
  0
STYLE
  5
11
330
3
100
AcDbSymbolTableRecord
100
AcDbTextStyleTableRecord
  2
Standard
 70
     0
 40
0.0
 41
1.0
 50
0.0
 71
     0
 42
0.2
  3
txt
  4

  0
ENDTAB
  0
TABLE
  2
VIEW
  5
6
330
0
100
AcDbSymbolTable
 70
     0
  0
ENDTAB
  0
TABLE
  2
UCS
  5
7
330
0
100
AcDbSymbolTable
 70
     0
  0
ENDTAB
  0
TABLE
  2
APPID
  5
9
330
0
100
AcDbSymbolTable
 70
     1
  0
APPID
  5
12
330
9
100
AcDbSymbolTableRecord
100
AcDbRegAppTableRecord
  2
ACAD
 70
     0
  0
ENDTAB
  0
TABLE
  2
DIMSTYLE
  5
A
330
0
100
AcDbSymbolTable
 70
     1
100
AcDbDimStyleTable
  0
DIMSTYLE
105
27
330
A
100
AcDbSymbolTableRecord
100
AcDbDimStyleTableRecord
  2
Standard
 70
     0
340
11
  0
ENDTAB
  0
TABLE
  2
BLOCK_RECORD
  5
1
330
0
100
AcDbSymbolTable
 70
     7
  0
BLOCK_RECORD
  5
1F
330
1
100
AcDbSymbolTableRecord
100
AcDbBlockTableRecord
  2
*Model_Space
340
22
  0
BLOCK_RECORD
  5
1B
330
1
100
AcDbSymbolTableRecord
100
AcDbBlockTableRecord
  2
*Paper_Space
340
1E
  0
BLOCK_RECORD
  5
43
330
1
100
AcDbSymbolTableRecord
100
AcDbBlockTableRecord
  2
COMPOSITE
340
0
102
{BLKREFS
331
42
102
}
  0
BLOCK_RECORD
  5
45
330
1
100
AcDbSymbolTableRecord
100
AcDbBlockTableRecord
  2
CK_HATCH_0001
340
0
102
{BLKREFS
331
55
102
}
  0
BLOCK_RECORD
  5
58
330
1
100
AcDbSymbolTableRecord
100
AcDbBlockTableRecord
  2
CK_HATCH_0002
340
0
102
{BLKREFS
331
65
102
}
  0
BLOCK_RECORD
  5
68
330
1
100
AcDbSymbolTableRecord
100
AcDbBlockTableRecord
  2
CK_HATCH_0003
340
0
102
{BLKREFS
331
B8
102
}
  0
BLOCK_RECORD
  5
BB
330
1
100
AcDbSymbolTableRecord
100
AcDbBlockTableRecord
  2
CK_HATCH_0004
340
0
102
{BLKREFS
331
104
102
}
  0
BLOCK_RECORD
  5
107
330
1
100
AcDbSymbolTableRecord
100
AcDbBlockTableRecord
  2
CK_HATCH_0005
340
0
102
{BLKREFS
331
114
102
}
  0
ENDTAB
  0
ENDSEC
  0
SECTION
  2
BLOCKS
  0
BLOCK
  5
20
330
1F
100
AcDbEntity
  8
0
100
AcDbBlockBegin
  2
*Model_Space
 70
     0
 71
     0
 10
0.0
 20
0.0
 30
0.0
  3
*Model_Space
  1

  0
ENDBLK
  5
21
330
1F
100
AcDbEntity
  8
0
100
AcDbBlockEnd
  0
BLOCK
  5
1C
330
1B
100
AcDbEntity
 67
     1
  8
0
100
AcDbBlockBegin
  2
*Paper_Space
 70
     0
 71
     0
 10
0.0
 20
0.0
 30
0.0
  3
*Paper_Space
  1

  0
ENDBLK
  5
1D
330
1B
100
AcDbEntity
 67
     1
  8
0
100
AcDbBlockEnd
  0
BLOCK
  5
23D
330
43
100
AcDbEntity
  8
0
100
AcDbBlockBegin
  2
COMPOSITE
 70
     0
 71
     0
 10
0.0
 20
0.0
 30
0.0
  3
COMPOSITE
  1

  0
LINE
  5
44
330
43
100
AcDbEntity
  8
CC-60401-0 Strip [REF] [12]
  6
Continuous
 62
    23
370
     0
100
AcDbLine
 10
-4.022114377031826
 20
-0.1720000415955711
 30
0.0
 11
-4.012147677031826
 21
-0.1720000415955711
 31
0.0
  0
INSERT
  5
55
330
43
100
AcDbEntity
  8
CC-60401-0 Strip [REF] [12]
  6
DASHED
 62
     8
370
     0
100
AcDbBlockReference
  2
CK_HATCH_0001
 10
0.0
 20
0.0
 30
0.0
 50
29.99999999999983
  0
INSERT
  5
65
330
43
100
AcDbEntity
  8
CC-60401-0 Strip [REF] [12]
  6
Continuous
 62
     8
370
     0
100
AcDbBlockReference
  2
CK_HATCH_0002
 10
0.0
 20
0.0
 30
0.0
 50
150.0000000000003
  0
INSERT
  5
B8
330
43
100
AcDbEntity
  8
CC-60401-0 Strip [REF] [12]
  6
Continuous
 62
     8
370
     0
100
AcDbBlockReference
  2
CK_HATCH_0003
 10
0.0
 20
0.0
 30
0.0
 41
0.9999999999999999
 42
0.9999999999999999
 50
120.0000000000005
  0
INSERT
  5
104
330
43
100
AcDbEntity
  8
CC-60401-0 Strip [REF] [12]
  6
Continuous
 62
     8
370
     0
100
AcDbBlockReference
  2
CK_HATCH_0004
 10
0.0
 20
0.0
 30
0.0
 50
44.99999999999982
  0
INSERT
  5
114
330
43
100
AcDbEntity
  8
CC-60401-0 Strip [REF] [12]
  6
Continuous
 62
     8
370
     0
100
AcDbBlockReference
  2
CK_HATCH_0005
 10
0.0
 20
0.0
 30
0.0
 50
135.0000000000006
  0
ARC
  5
117
330
43
100
AcDbEntity
  8
CC-60401-0 Strip [REF] [12]
  6
Continuous
 62
   163
370
     0
100
AcDbCircle
 10
3.067147677031826
 20
0.0
 30
1.072999958404433
 40
0.5912615749395523
210
0.0
220
1.0
230
6.123031769111886E-17
100
AcDbArc
 50
272.4233295378019
 51
0.0
  0
LINE
  5
118
330
43
100
AcDbEntity
  8
CC-60401-0 Strip [REF] [12]
  6
Continuous
 62
   163
370
     0
100
AcDbLine
 10
-3.092147677031826
 20
1.579999958404429
 30
-0.5907328076211781
 11
-3.092147677031826
 21
1.072999958404433
 31
-0.5907328076211781
  0
ARC
  5
119
330
43
100
AcDbEntity
  8
CC-60401-0 Strip [REF] [12]
  6
Continuous
 62
   163
370
     0
100
AcDbCircle
 10
-3.067147677031826
 20
0.0
 30
-1.579999958404429
 40
0.5912615749395523
210
0.0
220
-1.0
230
-6.123031769111886E-17
100
AcDbArc
 50
180.0
 51
267.5766704621982
  0
LINE
  5
11A
330
43
100
AcDbEntity
  8
CC-60401-0 Strip [REF] [12]
  6
Continuous
 62
   163
370
     0
100
AcDbLine
 10
-3.042147677031826
 20
1.072999958404433
 30
-0.5907328076211781
 11
-3.042147677031826
 21
1.579999958404429
 31
-0.5907328076211781
  0
ARC
  5
11B
330
43
100
AcDbEntity
  8
CC-60401-0 Strip [REF] [12]
  6
Continuous
 62
   163
370
     0
100
AcDbCircle
 10
-3.067147677031826
 20
0.0
 30
-1.579999958404429
 40
0.5912615749395523
210
0.0
220
-1.0
230
-6.123031769111886E-17
100
AcDbArc
 50
272.4233295378018
 51
0.0
  0
ARC
  5
11C
330
43
100
AcDbEntity
  8
CC-60401-0 Strip [REF] [12]
  6
Continuous
 62
   163
370
     0
100
AcDbCircle
 10
3.067147677031826
 20
0.0
 30
1.072999958404433
 40
0.5912615749395523
210
0.0
220
1.0
230
6.123031769111886E-17
100
AcDbArc
 50
180.0
 51
267.5766704621983
  0
ARC
  5
11D
330
43
100
AcDbEntity
  8
CC-60401-0 Strip [REF] [12]
  6
Continuous
 62
   163
370
     0
100
AcDbCircle
 10
3.067147677031826
 20
0.0
 30
-0.8600000415955718
 40
0.5912615749395523
210
0.0
220
1.0
230
6.123031769111886E-17
100
AcDbArc
 50
272.4233295378019
 51
0.0
  0
LINE
  5
11E
330
43
100
AcDbEntity
  8
CC-60401-0 Strip [REF] [12]
  6
Continuous
 62
   163
370
     0
100
AcDbLine
 10
-3.092147677031826
 20
-0.8600000415955718
 30
-0.5907328076211782
 11
-3.092147677031826
 21
-0.3530000415955774
 31
-0.5907328076211782
  0
ARC
  5
11F
330
43
100
AcDbEntity
  8
CC-60401-0 Strip [REF] [12]
  6
Continuous
 62
   163
370
     0
100
AcDbCircle
 10
3.067147677031826
 20
0.0
 30
-0.3530000415955774
 40
0.5912615749395523
210
0.0
220
1.0
230
6.123031769111886E-17
100
AcDbArc
 50
272.4233295378019
 51
0.0
  0
ARC
  5
120
330
43
100
AcDbEntity
  8
CC-60401-0 Strip [REF] [12]
  6
Continuous
 62
   163
370
     0
100
AcDbCircle
 10
3.067147677031826
 20
0.0
 30
-0.8600000415955718
 40
0.5912615749395523
210
0.0
220
1.0
230
6.123031769111886E-17
100
AcDbArc
 50
180.0
 51
267.5766704621983
  0
LINE
  5
121
330
43
100
AcDbEntity
  8
CC-60401-0 Strip [REF] [12]
  6
Continuous
 62
   163
370
     0
100
AcDbLine
 10
-3.042147677031826
 20
-0.3530000415955774
 30
-0.5907328076211782
 11
-3.042147677031826
 21
-0.8600000415955718
 31
-0.5907328076211782
  0
ARC
  5
122
330
43
100
AcDbEntity
  8
CC-60401-0 Strip [REF] [12]
  6
Continuous
 62
   163
370
     0
100
AcDbCircle
 10
3.067147677031826
 20
0.0
 30
-0.3530000415955774
 40
0.5912615749395523
210
0.0
220
1.0
230
6.123031769111886E-17
100
AcDbArc
 50
180.0
 51
267.5766704621983
  0
ARC
  5
123
330
43
100
AcDbEntity
  8
CC-60401-0 Strip [REF] [12]
  6
Continuous
 62
     2
370
     0
100
AcDbCircle
 10
-3.864647677031826
 20
1.430999958404429
 30
0.0000000000000004
 40
0.046
100
AcDbArc
 50
180.0
 51
270.0
  0
ARC
  5
124
330
43
100
AcDbEntity
  8
CC-60401-0 Strip [REF] [12]
  6
Continuous
 62
     2
370
     0
100
AcDbCircle
 10
-4.049647677031826
 20
0.8619999584044278
 30
0.0000000000000004
 40
0.03
100
AcDbArc
 50
90.0
 51
180.0
  0
ARC
  5
125
330
43
100
AcDbEntity
  8
CC-60401-0 Strip [REF] [12]
  6
Continuous
 62
     2
370
     0
100
AcDbCircle
 10
-3.067147677031826
 20
0.0000000000000004
 30
-1.070469807415178
 40
2.68618984617186
210
0.0
220
-1.0
230
0.0
100
AcDbArc
 50
180.0
 51
241.1579423400907
  0
ARC
  5
126
330
43
100
AcDbEntity
  8
CC-60401-0 Strip [REF] [12]
  6
Continuous
 62
     2
370
     0
100
AcDbCircle
 10
-3.067147677031826
 20
0.0000000000000004
 30
-1.070469807415178
 40
2.68618984617186
210
0.0
220
-1.0
230
0.0
100
AcDbArc
 50
298.8420576599102
 51
0.0
  0
ARC
  5
127
330
43
100
AcDbEntity
  8
CC-60401-0 Strip [REF] [12]
  6
Continuous
 62
     2
370
     0
100
AcDbCircle
 10
-3.067147677031826
 20
0.0000000000000004
 30
-0.359999958404428
 40
2.711
210
0.0
220
-1.0
230
0.0
100
AcDbArc
 50
180.0
 51
242.0416285147761
  0
ARC
  5
128
330
43
100
AcDbEntity
  8
CC-60401-0 Strip [REF] [12]
  6
Continuous
 62
     2
370
     0
100
AcDbCircle
 10
-3.067147677031826
 20
0.0000000000000004
 30
-0.359999958404428
 40
2.711
210
0.0
220
-1.0
230
0.0
100
AcDbArc
 50
297.9583714852248
 51
0.0
  0
ARC
  5
129
330
43
100
AcDbEntity
  8
CC-60401-0 Strip [REF] [12]
  6
Continuous
 62
     2
370
     0
100
AcDbCircle
 10
-3.067147677031826
 20
0.0000000000000004
 30
-1.619344529743874
 40
3.003670553471081
210
0.0
220
-1.0
230
0.0
100
AcDbArc
 50
180.0
 51
190.1636474133057
  0
ARC
  5
12A
330
43
100
AcDbEntity
  8
CC-60401-0 Strip [REF] [12]
  6
Continuous
 62
     2
370
     0
100
AcDbCircle
 10
-3.067147677031826
 20
0.0000000000000004
 30
-1.619344529743874
 40
3.003670553471081
210
0.0
220
-1.0
230
0.0
100
AcDbArc
 50
349.8363525866951
 51
0.0
  0
ARC
  5
12B
330
43
100
AcDbEntity
  8
CC-60401-0 Strip [REF] [12]
  6
Continuous
 62
     2
370
     0
100
AcDbCircle
 10
-3.067147677031826
 20
0.0000000000000004
 30
-1.604999958404428
 40
3.019053222934219
210
0.0
220
-1.0
230
0.0
100
AcDbArc
 50
180.0
 51
191.3024077469159
  0
ARC
  5
12C
330
43
100
AcDbEntity
  8
CC-60401-0 Strip [REF] [12]
  6
Continuous
 62
     2
370
     0
100
AcDbCircle
 10
-3.067147677031826
 20
0.0000000000000004
 30
-1.604999958404428
 40
3.019053222934219
210
0.0
220
-1.0
230
0.0
100
AcDbArc
 50
348.7370994714022
 51
0.0
  0
ARC
  5
12D
330
43
100
AcDbEntity
  8
CC-60401-0 Strip [REF] [12]
  6
Continuous
 62
     2
370
     0
100
AcDbCircle
 10
-3.067147677031826
 20
0.0000000000000004
 30
-1.953999958404428
 40
0.8435000000000001
210
0.0
220
-1.0
230
0.0
100
AcDbArc
 50
180.0
 51
0.0
  0
ARC
  5
12E
330
43
100
AcDbEntity
  8
CC-60401-0 Strip [REF] [12]
  6
Continuous
 62
     2
370
     0
100
AcDbCircle
 10
-3.067147677031826
 20
0.0000000000000004
 30
-1.430999958404429
 40
0.8435
210
0.0
220
-1.0
230
0.0
100
AcDbArc
 50
180.0
 51
205.3749101860413
  0
ARC
  5
12F
330
43
100
AcDbEntity
  8
CC-60401-0 Strip [REF] [12]
  6
Continuous
 62
     2
370
     0
100
AcDbCircle
 10
-3.067147677031826
 20
0.0000000000000004
 30
-1.430999958404429
 40
0.8435
210
0.0
220
-1.0
230
0.0
100
AcDbArc
 50
268.3015954951833
 51
271.6984045048168
  0
ARC
  5
130
330
43
100
AcDbEntity
  8
CC-60401-0 Strip [REF] [12]
  6
Continuous
 62
     2
370
     0
100
AcDbCircle
 10
-3.067147677031826
 20
0.0000000000000004
 30
-1.430999958404429
 40
0.8435
210
0.0
220
-1.0
230
0.0
100
AcDbArc
 50
334.6250898139594
 51
0.0
  0
ARC
  5
131
330
43
100
AcDbEntity
  8
CC-60401-0 Strip [REF] [12]
  6
Continuous
 62
     2
370
     0
100
AcDbCircle
 10
-3.067147677031826
 20
0.0000000000000004
 30
-1.384999958404427
 40
0.7852713240271472
210
0.0
220
-1.0
230
0.0
100
AcDbArc
 50
180.0
 51
193.947510443313
  0
ARC
  5
132
330
43
100
AcDbEntity
  8
CC-60401-0 Strip [REF] [12]
  6
Continuous
 62
     2
370
     0
100
AcDbCircle
 10
-3.067147677031826
 20
0.0000000000000004
 30
-1.384999958404427
 40
0.7852713240271472
210
0.0
220
-1.0
230
0.0
100
AcDbArc
 50
268.1756159624467
 51
271.8243840375533
  0
ARC
  5
133
330
43
100
AcDbEntity
  8
CC-60401-0 Strip [REF] [12]
  6
Continuous
 62
     2
370
     0
100
AcDbCircle
 10
-3.067147677031826
 20
0.0000000000000004
 30
-1.384999958404427
 40
0.7852713240271472
210
0.0
220
-1.0
230
0.0
100
AcDbArc
 50
346.0524895566879
 51
0.0
  0
ARC
  5
134
330
43
100
AcDbEntity
  8
CC-60401-0 Strip [REF] [12]
  6
Continuous
 62
     2
370
     0
100
AcDbCircle
 10
-3.067147677031826
 20
0.0000000000000004
 30
-1.109999958404427
 40
0.6265000000000001
210
0.0
220
-1.0
230
0.0
100
AcDbArc
 50
267.7130490663477
 51
272.2869509336524
  0
ARC
  5
135
330
43
100
AcDbEntity
  8
CC-60401-0 Strip [REF] [12]
  6
Continuous
 62
     2
370
     0
100
AcDbCircle
 10
-3.067147677031826
 20
0.0000000000000004
 30
-0.9219999584044283
 40
0.6265000000000001
210
0.0
220
-1.0
230
0.0
100
AcDbArc
 50
180.0
 51
0.0
  0
ARC
  5
136
330
43
100
AcDbEntity
  8
CC-60401-0 Strip [REF] [12]
  6
Continuous
 62
     2
370
     0
100
AcDbCircle
 10
-3.067147677031826
 20
0.0000000000000004
 30
-0.891999958404428
 40
0.6565000000000001
210
0.0
220
-1.0
230
0.0
100
AcDbArc
 50
180.0
 51
0.0
  0
ARC
  5
137
330
43
100
AcDbEntity
  8
CC-60401-0 Strip [REF] [12]
  6
Continuous
 62
     2
370
     0
100
AcDbCircle
 10
-3.067147677031826
 20
0.0000000000000004
 30
-0.8619999584044278
 40
1.0125
210
0.0
220
-1.0
230
0.0
100
AcDbArc
 50
180.0
 51
197.782713808147
  0
ARC
  5
138
330
43
100
AcDbEntity
  8
CC-60401-0 Strip [REF] [12]
  6
Continuous
 62
     2
370
     0
100
AcDbCircle
 10
-3.067147677031826
 20
0.0000000000000004
 30
-0.8619999584044278
 40
1.0125
210
0.0
220
-1.0
230
0.0
100
AcDbArc
 50
342.1234936728715
 51
0.0
  0
ARC
  5
139
330
43
100
AcDbEntity
  8
CC-60401-0 Strip [REF] [12]
  6
Continuous
 62
     2
370
     0
100
AcDbCircle
 10
-3.067147677031826
 20
0.0000000000000004
 30
-0.3899999584044282
 40
1.0125
210
0.0
220
-1.0
230
0.0
100
AcDbArc
 50
180.0
 51
189.0126947057091
  0
ARC
  5
13A
330
43
100
AcDbEntity
  8
CC-60401-0 Strip [REF] [12]
  6
Continuous
 62
     2
370
     0
100
AcDbCircle
 10
-3.067147677031826
 20
0.0000000000000004
 30
-0.3899999584044282
 40
1.0125
210
0.0
220
-1.0
230
0.0
100
AcDbArc
 50
350.612937219441
 51
0.0
  0
ARC
  5
13B
330
43
100
AcDbEntity
  8
CC-60401-0 Strip [REF] [12]
  6
Continuous
 62
     2
370
     0
100
AcDbCircle
 10
-3.067147677031826
 20
0.0000000000000004
 30
-0.359999958404428
 40
1.0425
210
0.0
220
-1.0
230
0.0
100
AcDbArc
 50
180.0
 51
196.421651112822
  0
ARC
  5
13C
330
43
100
AcDbEntity
  8
CC-60401-0 Strip [REF] [12]
  6
Continuous
 62
     2
370
     0
100
AcDbCircle
 10
-3.067147677031826
 20
0.0000000000000004
 30
-0.359999958404428
 40
1.0425
210
0.0
220
-1.0
230
0.0
100
AcDbArc
 50
343.3725211381057
 51
0.0
  0
ARC
  5
13D
330
43
100
AcDbEntity
  8
CC-60401-0 Strip [REF] [12]
  6
Continuous
 62
     2
370
     0
100
AcDbCircle
 10
-3.864647677031826
 20
-0.7110000415955726
 30
0.0000000000000004
 40
0.046
100
AcDbArc
 50
90.0
 51
180.0
  0
ARC
  5
13E
330
43
100
AcDbEntity
  8
CC-60401-0 Strip [REF] [12]
  6
Continuous
 62
     2
370
     0
100
AcDbCircle
 10
-4.049647677031826
 20
-0.1420000415955718
 30
0.0000000000000004
 40
0.03
100
AcDbArc
 50
180.0
 51
270.0
  0
ARC
  5
13F
330
43
100
AcDbEntity
  8
CC-60401-0 Strip [REF] [12]
  6
Continuous
 62
     2
370
     0
100
AcDbCircle
 10
-3.067147677031826
 20
0.0000000000000004
 30
0.3504698906063224
 40
2.68618984617186
210
0.0
220
-1.0
230
0.0
100
AcDbArc
 50
180.0
 51
241.1579423400907
  0
ARC
  5
140
330
43
100
AcDbEntity
  8
CC-60401-0 Strip [REF] [12]
  6
Continuous
 62
     2
370
     0
100
AcDbCircle
 10
-3.067147677031826
 20
0.0000000000000004
 30
0.3504698906063224
 40
2.68618984617186
210
0.0
220
-1.0
230
0.0
100
AcDbArc
 50
298.8420576599102
 51
0.0
  0
ARC
  5
141
330
43
100
AcDbEntity
  8
CC-60401-0 Strip [REF] [12]
  6
Continuous
 62
     2
370
     0
100
AcDbCircle
 10
-3.067147677031826
 20
0.0000000000000004
 30
-0.359999958404428
 40
2.711
210
0.0
220
-1.0
230
0.0
100
AcDbArc
 50
180.0
 51
242.0416285147761
  0
ARC
  5
142
330
43
100
AcDbEntity
  8
CC-60401-0 Strip [REF] [12]
  6
Continuous
 62
     2
370
     0
100
AcDbCircle
 10
-3.067147677031826
 20
0.0000000000000004
 30
-0.359999958404428
 40
2.711
210
0.0
220
-1.0
230
0.0
100
AcDbArc
 50
297.9583714852248
 51
0.0
  0
ARC
  5
143
330
43
100
AcDbEntity
  8
CC-60401-0 Strip [REF] [12]
  6
Continuous
 62
     2
370
     0
100
AcDbCircle
 10
-3.067147677031826
 20
0.0000000000000004
 30
0.8993446129350167
 40
3.003670553471081
210
0.0
220
-1.0
230
0.0
100
AcDbArc
 50
180.0
 51
190.1636474133057
  0
ARC
  5
144
330
43
100
AcDbEntity
  8
CC-60401-0 Strip [REF] [12]
  6
Continuous
 62
     2
370
     0
100
AcDbCircle
 10
-3.067147677031826
 20
0.0000000000000004
 30
0.8993446129350167
 40
3.003670553471081
210
0.0
220
-1.0
230
0.0
100
AcDbArc
 50
349.8363525866951
 51
0.0
  0
ARC
  5
145
330
43
100
AcDbEntity
  8
CC-60401-0 Strip [REF] [12]
  6
Continuous
 62
     2
370
     0
100
AcDbCircle
 10
-3.067147677031826
 20
0.0000000000000004
 30
0.8850000415955721
 40
3.019053222934219
210
0.0
220
-1.0
230
0.0
100
AcDbArc
 50
180.0
 51
191.2629005285987
  0
ARC
  5
146
330
43
100
AcDbEntity
  8
CC-60401-0 Strip [REF] [12]
  6
Continuous
 62
     2
370
     0
100
AcDbCircle
 10
-3.067147677031826
 20
0.0000000000000004
 30
0.8850000415955721
 40
3.019053222934219
210
0.0
220
-1.0
230
0.0
100
AcDbArc
 50
348.697592253085
 51
0.0
  0
ARC
  5
147
330
43
100
AcDbEntity
  8
CC-60401-0 Strip [REF] [12]
  6
Continuous
 62
     2
370
     0
100
AcDbCircle
 10
-3.067147677031826
 20
0.0000000000000004
 30
1.234000041595572
 40
0.8435000000000001
210
0.0
220
-1.0
230
0.0
100
AcDbArc
 50
180.0
 51
0.0
  0
ARC
  5
148
330
43
100
AcDbEntity
  8
CC-60401-0 Strip [REF] [12]
  6
Continuous
 62
     2
370
     0
100
AcDbCircle
 10
-3.067147677031826
 20
0.0000000000000004
 30
0.7110000415955726
 40
0.8435
210
0.0
220
-1.0
230
0.0
100
AcDbArc
 50
180.0
 51
205.3749101860415
  0
ARC
  5
149
330
43
100
AcDbEntity
  8
CC-60401-0 Strip [REF] [12]
  6
Continuous
 62
     2
370
     0
100
AcDbCircle
 10
-3.067147677031826
 20
0.0000000000000004
 30
0.7110000415955726
 40
0.8435
210
0.0
220
-1.0
230
0.0
100
AcDbArc
 50
268.3015954951833
 51
271.6984045048168
  0
ARC
  5
14A
330
43
100
AcDbEntity
  8
CC-60401-0 Strip [REF] [12]
  6
Continuous
 62
     2
370
     0
100
AcDbCircle
 10
-3.067147677031826
 20
0.0000000000000004
 30
0.7110000415955726
 40
0.8435
210
0.0
220
-1.0
230
0.0
100
AcDbArc
 50
334.6250898139594
 51
0.0
  0
ARC
  5
14B
330
43
100
AcDbEntity
  8
CC-60401-0 Strip [REF] [12]
  6
Continuous
 62
     2
370
     0
100
AcDbCircle
 10
-3.067147677031826
 20
0.0000000000000004
 30
0.6650000415955715
 40
0.7852713240271472
210
0.0
220
-1.0
230
0.0
100
AcDbArc
 50
180.0
 51
193.947510443314
  0
ARC
  5
14C
330
43
100
AcDbEntity
  8
CC-60401-0 Strip [REF] [12]
  6
Continuous
 62
     2
370
     0
100
AcDbCircle
 10
-3.067147677031826
 20
0.0000000000000004
 30
0.6650000415955715
 40
0.7852713240271472
210
0.0
220
-1.0
230
0.0
100
AcDbArc
 50
268.1756159624467
 51
271.8243840375533
  0
ARC
  5
14D
330
43
100
AcDbEntity
  8
CC-60401-0 Strip [REF] [12]
  6
Continuous
 62
     2
370
     0
100
AcDbCircle
 10
-3.067147677031826
 20
0.0000000000000004
 30
0.6650000415955715
 40
0.7852713240271472
210
0.0
220
-1.0
230
0.0
100
AcDbArc
 50
346.0524895566871
 51
0.0
  0
ARC
  5
14E
330
43
100
AcDbEntity
  8
CC-60401-0 Strip [REF] [12]
  6
Continuous
 62
     2
370
     0
100
AcDbCircle
 10
-3.067147677031826
 20
0.0000000000000004
 30
0.3900000415955711
 40
0.6265000000000001
210
0.0
220
-1.0
230
0.0
100
AcDbArc
 50
267.7130490663477
 51
272.2869509336524
  0
ARC
  5
14F
330
43
100
AcDbEntity
  8
CC-60401-0 Strip [REF] [12]
  6
Continuous
 62
     2
370
     0
100
AcDbCircle
 10
-3.067147677031826
 20
0.0000000000000004
 30
0.2020000415955723
 40
0.6265000000000001
210
0.0
220
-1.0
230
0.0
100
AcDbArc
 50
180.0
 51
0.0
  0
ARC
  5
150
330
43
100
AcDbEntity
  8
CC-60401-0 Strip [REF] [12]
  6
Continuous
 62
     2
370
     0
100
AcDbCircle
 10
-3.067147677031826
 20
0.0000000000000004
 30
0.1720000415955711
 40
0.6565000000000001
210
0.0
220
-1.0
230
0.0
100
AcDbArc
 50
180.0
 51
0.0
  0
ARC
  5
151
330
43
100
AcDbEntity
  8
CC-60401-0 Strip [REF] [12]
  6
Continuous
 62
     2
370
     0
100
AcDbCircle
 10
-3.067147677031826
 20
0.0000000000000004
 30
0.1420000415955718
 40
1.0125
210
0.0
220
-1.0
230
0.0
100
AcDbArc
 50
180.0
 51
196.2059296679278
  0
ARC
  5
152
330
43
100
AcDbEntity
  8
CC-60401-0 Strip [REF] [12]
  6
Continuous
 62
     2
370
     0
100
AcDbCircle
 10
-3.067147677031826
 20
0.0000000000000004
 30
0.1420000415955718
 40
1.0125
210
0.0
220
-1.0
230
0.0
100
AcDbArc
 50
343.6923766188397
 51
0.0
  0
ARC
  5
153
330
43
100
AcDbEntity
  8
CC-60401-0 Strip [REF] [12]
  6
Continuous
 62
     2
370
     0
100
AcDbCircle
 10
-3.067147677031826
 20
0.0000000000000004
 30
-0.3299999584044278
 40
1.0125
210
0.0
220
-1.0
230
0.0
100
AcDbArc
 50
180.0
 51
189.0126947057091
  0
ARC
  5
154
330
43
100
AcDbEntity
  8
CC-60401-0 Strip [REF] [12]
  6
Continuous
 62
     2
370
     0
100
AcDbCircle
 10
-3.067147677031826
 20
0.0000000000000004
 30
-0.3299999584044278
 40
1.0125
210
0.0
220
-1.0
230
0.0
100
AcDbArc
 50
350.612937219441
 51
0.0
  0
ARC
  5
155
330
43
100
AcDbEntity
  8
CC-60401-0 Strip [REF] [12]
  6
Continuous
 62
     2
370
     0
100
AcDbCircle
 10
-3.067147677031826
 20
0.0000000000000004
 30
-0.359999958404428
 40
1.0425
210
0.0
220
-1.0
230
0.0
100
AcDbArc
 50
180.0
 51
196.421651112822
  0
ARC
  5
156
330
43
100
AcDbEntity
  8
CC-60401-0 Strip [REF] [12]
  6
Continuous
 62
     2
370
     0
100
AcDbCircle
 10
-3.067147677031826
 20
0.0000000000000004
 30
-0.359999958404428
 40
1.0425
210
0.0
220
-1.0
230
0.0
100
AcDbArc
 50
343.3725211381057
 51
0.0
  0
LWPOLYLINE
  5
157
330
43
100
AcDbEntity
  8
CC-60401-0 Strip [REF] [12]
  6
Continuous
 62
    23
370
     0
100
AcDbPolyline
 90
        9
 70
     0
 43
0.0
 38
0.0309999999999999
 10
2.112684268561449
 20
0.8779999584044278
 10
2.108972108728721
 20
0.871573681441725
 10
2.10524726971791
 20
0.8651254288509662
 10
2.101509686369798
 20
0.8586550878680272
 10
2.097759293078691
 20
0.8521625449546404
 10
2.093996023788572
 20
0.8456476857917439
 10
2.090219811989226
 20
0.8391103952727779
 10
2.086430590712322
 20
0.832550557496913
 10
2.082628292527454
 20
0.8259680557621882
210
0.0
220
0.0
230
-1.0
  0
LINE
  5
162
330
43
100
AcDbEntity
  8
CC-60401-0 Strip [REF] [12]
  6
Continuous
 62
    23
370
     0
100
AcDbLine
 10
-2.082628292527454
 20
0.8259680557621882
 30
-0.0309999999999999
 11
-2.082628292527454
 21
-0.1199681389532765
 31
-0.0309999999999999
  0
LWPOLYLINE
  5
163
330
43
100
AcDbEntity
  8
CC-60401-0 Strip [REF] [12]
  6
Continuous
 62
    23
370
     0
100
AcDbPolyline
 90
        5
 70
     0
 43
0.0
 38
1.522149437643953
 10
-0.7999999583764724
 20
1.400946334536372
 10
-0.8065634661787426
 20
1.406176354660802
 10
-0.8130791340043059
 20
1.411386219259726
 10
-0.8195472393503694
 20
1.416576146719918
 10
-0.8259680557340713
 20
1.421746353736298
210
-0.7205578661993546
220
9.727987226969642E-12
230
-0.6933948092236003
  0
LINE
  5
16A
330
43
100
AcDbEntity
  8
CC-60401-0 Strip [REF] [12]
  6
Continuous
 62
    23
370
     0
100
AcDbLine
 10
-2.068205667182843
 20
-0.0940000415955717
 30
-0.0459876174515849
 11
-2.068205667182843
 21
0.7999999584044284
 31
-0.0459876174515848
  0
LWPOLYLINE
  5
16B
330
43
100
AcDbEntity
  8
CC-60401-0 Strip [REF] [12]
  6
Continuous
 62
    23
370
     0
100
AcDbPolyline
 90
        9
 70
     0
 43
0.0
 38
0.0309999999700465
 10
2.082628292527915
 20
-0.1199681389530101
 10
2.086430590712106
 20
-0.1265506406865589
 10
2.090219811988565
 20
-0.1331104784616502
 10
2.093996023787677
 20
-0.1396477689802121
 10
2.097759293077757
 20
-0.1461626281430446
 10
2.101509686368998
 20
-0.1526551710566749
 10
2.105247269717399
 20
-0.1591255120401263
 10
2.108972108728638
 20
-0.1655737646316391
 10
2.11268426856191
 20
-0.1720000415953047
210
1.487755114144998E-11
220
-8.593745173708783E-12
230
-1.0
  0
LWPOLYLINE
  5
176
330
43
100
AcDbEntity
  8
CC-60401-0 Strip [REF] [12]
  6
Continuous
 62
    23
370
     0
100
AcDbPolyline
 90
        5
 70
     0
 43
0.0
 38
1.522149437654966
 10
0.1199681389564744
 20
1.421746353707905
 10
0.1135473225727027
 20
1.41657614669156
 10
0.1070792172265832
 20
1.41138621923142
 10
0.1005635494009728
 20
1.406176354632562
 10
0.0940000415986676
 20
1.400946334508212
210
-0.7205578662087085
220
1.106432815739043E-12
230
-0.69339480921388
  0
LINE
  5
17D
330
43
100
AcDbEntity
  8
CC-60401-0 Strip [REF] [12]
  6
Continuous
 62
    23
370
     0
100
AcDbLine
 10
-2.117661722081191
 20
0.8779999584044278
 30
-0.0309999999999999
 11
-2.112684268561449
 21
0.8779999584044278
 31
-0.0309999999999999
  0
LINE
  5
17E
330
43
100
AcDbEntity
  8
CC-60401-0 Strip [REF] [12]
  6
Continuous
 62
    23
370
     0
100
AcDbLine
 10
-2.117661722081191
 20
0.8779999584044278
 30
-0.0309999999999999
 11
-2.122832166603408
 21
0.8779999584044278
 31
-0.0359613231724975
  0
LINE
  5
17F
330
43
100
AcDbEntity
  8
CC-60401-0 Strip [REF] [12]
  6
Continuous
 62
    23
370
     0
100
AcDbLine
 10
-2.117661722081191
 20
-0.1720000415955711
 30
-0.0309999999999999
 11
-2.117661722081191
 21
0.8779999584044278
 31
-0.0309999999999999
  0
LWPOLYLINE
  5
180
330
43
100
AcDbEntity
  8
CC-60401-0 Strip [REF] [12]
  6
Continuous
 62
    23
370
     0
100
AcDbPolyline
 90
        3
 70
     0
 43
0.0
 38
1.443825851346212
 10
0.162000041626432
 20
-1.571102103821112
 10
0.1669721646580024
 20
-1.5638820259541
 10
0.1720000416262806
 20
-1.55662344043261
210
-0.6923645174411331
220
1.001593946390360E-11
230
0.7215479020747735
  0
LINE
  5
185
330
43
100
AcDbEntity
  8
CC-60401-0 Strip [REF] [12]
  6
Continuous
 62
    23
370
     0
100
AcDbLine
 10
-2.133279215796083
 20
0.867999958404428
 30
-0.0459858359626697
 11
-2.133279215796083
 21
-0.1620000415955714
 31
-0.0459858359626697
  0
ARC
  5
186
330
43
100
AcDbEntity
  8
CC-60401-0 Strip [REF] [12]
  6
Continuous
 62
    23
370
     0
100
AcDbCircle
 10
3.067147677031826
 20
0.0000000000000004
 30
-0.1620000415955714
 40
0.935
210
0.0
220
1.0
230
0.0
100
AcDbArc
 50
182.8190991556286
 51
0.0
  0
ARC
  5
187
330
43
100
AcDbEntity
  8
CC-60401-0 Strip [REF] [12]
  6
Continuous
 62
    23
370
     0
100
AcDbCircle
 10
3.067147677031826
 20
0.0000000000000004
 30
0.8779999584044278
 40
0.9450000000000001
210
0.0
220
1.0
230
0.0
100
AcDbArc
 50
182.1808779508929
 51
0.0
  0
LWPOLYLINE
  5
188
330
43
100
AcDbEntity
  8
CC-60401-0 Strip [REF] [12]
  6
Continuous
 62
    23
370
     0
100
AcDbPolyline
 90
        3
 70
     0
 43
0.0
 38
-1.443825851333577
 10
0.8779999584438973
 20
-1.556623440425462
 10
0.8729720814756629
 20
-1.563882025946936
 10
0.8679999584440918
 20
-1.571102103813992
210
0.6923645174397167
220
1.287305040196070E-11
230
-0.7215479020761326
  0
ARC
  5
18D
330
43
100
AcDbEntity
  8
CC-60401-0 Strip [REF] [12]
  6
Continuous
 62
    23
370
     0
100
AcDbCircle
 10
-3.067147677031826
 20
0.0000000000000004
 30
-0.867999958404428
 40
0.935
210
0.0
220
-1.0
230
0.0
100
AcDbArc
 50
180.0
 51
357.1809008443715
  0
LINE
  5
18E
330
43
100
AcDbEntity
  8
CC-60401-0 Strip [REF] [12]
  6
Continuous
 62
   163
370
     0
100
AcDbLine
 10
-3.672425340896152
 20
1.072999958404431
 30
0.0
 11
-3.658409251971378
 21
1.072999958404431
 31
0.0
  0
LWPOLYLINE
  5
18F
330
43
100
AcDbEntity
  8
CC-60401-0 Strip [REF] [12]
  6
Continuous
 62
   163
370
     0
100
AcDbPolyline
 90
        8
 70
     0
 43
0.0
 38
0.0000000345593989
 10
3.82939249261177
 20
1.344899958404429
 10
3.750899812896695
 20
1.208949438947747
 10
3.741117278858198
 20
1.192004020960284
 10
3.731312901038722
 20
1.175020274768641
 10
3.711667001640633
 20
1.140986872992342
 10
3.692018889870036
 20
1.106947384057917
 10
3.682211746584924
 20
1.089956028918614
 10
3.672425340894538
 20
1.072999958404428
210
-1.131987062832749E-8
220
-6.534931129122039E-9
230
-1.0
  0
LINE
  5
199
330
43
100
AcDbEntity
  8
CC-60401-0 Strip [REF] [12]
  6
Continuous
 62
   163
370
     0
100
AcDbLine
 10
-3.829392492611799
 20
1.579999958404429
 30
0.0000000000000001
 11
-3.829392492611799
 21
1.344899958404429
 31
0.0000000000000001
  0
LINE
  5
19A
330
43
100
AcDbEntity
  8
CC-60401-0 Strip [REF] [12]
  6
Continuous
 62
   163
370
     0
100
AcDbLine
 10
-3.658409251971378
 20
1.072999958404433
 30
0.0
 11
-3.658409251971378
 21
1.579999958404429
 31
0.0000000000000001
  0
LINE
  5
19B
330
43
100
AcDbEntity
  8
CC-60401-0 Strip [REF] [12]
  6
Continuous
 62
   163
370
     0
100
AcDbLine
 10
-3.658409251971378
 20
1.579999958404429
 30
0.0000000000000001
 11
-3.829392492611799
 21
1.579999958404429
 31
0.0000000000000001
  0
LWPOLYLINE
  5
19C
330
43
100
AcDbEntity
  8
CC-60401-0 Strip [REF] [12]
  6
Continuous
 62
   163
370
     0
100
AcDbPolyline
 90
        8
 70
     0
 43
0.0
 38
0.0000000009192067
 10
-2.461870013169114
 20
1.072999958404428
 10
-2.452083551561432
 20
1.08995612579987
 10
-2.442276352017115
 20
1.106947578405597
 10
-2.422628127178126
 20
1.14098726320587
 10
-2.402982114771247
 20
1.175020860721174
 10
-2.393177680767068
 20
1.192004704220691
 10
-2.383395090915579
 20
1.20895021886744
 10
-2.304902861451881
 20
1.344899958404429
210
-2.983164574270657E-10
220
1.722261072125719E-10
230
1.0
  0
LINE
  5
1A6
330
43
100
AcDbEntity
  8
CC-60401-0 Strip [REF] [12]
  6
Continuous
 62
   163
370
     0
100
AcDbLine
 10
-2.475886102092274
 20
1.072999958404431
 30
0.0
 11
-2.4618700131675
 21
1.072999958404431
 31
0.0
  0
LINE
  5
1A7
330
43
100
AcDbEntity
  8
CC-60401-0 Strip [REF] [12]
  6
Continuous
 62
   163
370
     0
100
AcDbLine
 10
-2.475886102092274
 20
1.579999958404429
 30
0.0000000000000001
 11
-2.475886102092274
 21
1.072999958404433
 31
0.0
  0
LINE
  5
1A8
330
43
100
AcDbEntity
  8
CC-60401-0 Strip [REF] [12]
  6
Continuous
 62
   163
370
     0
100
AcDbLine
 10
-2.304902861451853
 20
1.579999958404429
 30
0.0000000000000001
 11
-2.475886102092274
 21
1.579999958404429
 31
0.0000000000000001
  0
LINE
  5
1A9
330
43
100
AcDbEntity
  8
CC-60401-0 Strip [REF] [12]
  6
Continuous
 62
   163
370
     0
100
AcDbLine
 10
-2.304902861451853
 20
1.344899958404429
 30
0.0000000000000001
 11
-2.304902861451853
 21
1.579999958404429
 31
0.0000000000000001
  0
LINE
  5
1AA
330
43
100
AcDbEntity
  8
CC-60401-0 Strip [REF] [12]
  6
Continuous
 62
   163
370
     0
100
AcDbLine
 10
-3.658409251971378
 20
-0.8600000415955718
 30
-0.0000000000000001
 11
-3.658409251971378
 21
-0.3530000415955774
 31
0.0
  0
LINE
  5
1AB
330
43
100
AcDbEntity
  8
CC-60401-0 Strip [REF] [12]
  6
Continuous
 62
   163
370
     0
100
AcDbLine
 10
-3.829392492611799
 20
-0.8600000415955718
 30
-0.0000000000000001
 11
-3.658409251971378
 21
-0.8600000415955718
 31
-0.0000000000000001
  0
LINE
  5
1AC
330
43
100
AcDbEntity
  8
CC-60401-0 Strip [REF] [12]
  6
Continuous
 62
   163
370
     0
100
AcDbLine
 10
-3.829392492611799
 20
-0.6249000415956223
 30
-0.0000000000000001
 11
-3.829392492611799
 21
-0.8600000415955718
 31
-0.0000000000000001
  0
LWPOLYLINE
  5
1AD
330
43
100
AcDbEntity
  8
CC-60401-0 Strip [REF] [12]
  6
Continuous
 62
   163
370
     0
100
AcDbPolyline
 90
        8
 70
     0
 43
0.0
 38
0.0000000113614298
 10
3.67242534089454
 20
-0.3530000415955747
 10
3.682212054598097
 20
-0.3699566457687435
 10
3.692019439821357
 20
-0.3869484200523328
 10
3.711667825586026
 20
-0.4209883835896298
 10
3.731313699706618
 20
-0.4550217414851838
 10
3.741117945374782
 20
-0.4720052587165942
 10
3.750900263701205
 20
-0.4889503030167122
 10
3.829392492611799
 20
-0.6249000415956223
210
-3.275557229049152E-9
220
1.891492776960216E-9
230
-1.0
  0
LINE
  5
1B7
330
43
100
AcDbEntity
  8
CC-60401-0 Strip [REF] [12]
  6
Continuous
 62
   163
370
     0
100
AcDbLine
 10
-3.658409251971378
 20
-0.3530000415955747
 30
0.0
 11
-3.67242534089454
 21
-0.3530000415955747
 31
0.0
  0
LINE
  5
1B8
330
43
100
AcDbEntity
  8
CC-60401-0 Strip [REF] [12]
  6
Continuous
 62
   163
370
     0
100
AcDbLine
 10
-2.475886102092274
 20
-0.8600000415955718
 30
-0.0000000000000001
 11
-2.304902861451853
 21
-0.8600000415955718
 31
-0.0000000000000001
  0
LINE
  5
1B9
330
43
100
AcDbEntity
  8
CC-60401-0 Strip [REF] [12]
  6
Continuous
 62
   163
370
     0
100
AcDbLine
 10
-2.475886102092274
 20
-0.3530000415955774
 30
0.0
 11
-2.475886102092274
 21
-0.8600000415955718
 31
-0.0000000000000001
  0
LINE
  5
1BA
330
43
100
AcDbEntity
  8
CC-60401-0 Strip [REF] [12]
  6
Continuous
 62
   163
370
     0
100
AcDbLine
 10
-2.461870013169112
 20
-0.3530000415955747
 30
0.0
 11
-2.475886102092274
 21
-0.3530000415955747
 31
0.0
  0
LWPOLYLINE
  5
1BB
330
43
100
AcDbEntity
  8
CC-60401-0 Strip [REF] [12]
  6
Continuous
 62
   163
370
     0
100
AcDbPolyline
 90
        8
 70
     0
 43
0.0
 38
-0.0000000536450204
 10
-2.304902861451851
 20
-0.6249000415956214
 10
-2.383395542897329
 20
-0.4889495191415563
 10
-2.393177805130891
 20
-0.4720045719854121
 10
-2.402981994331584
 20
-0.4550211525516091
 10
-2.422627754871769
 20
-0.4209879913851414
 10
-2.442276026992679
 20
-0.386948224710384
 10
-2.45208335566928
 20
-0.3699565483912216
 10
-2.461870013169111
 20
-0.353000041595574
210
2.012437901487063E-8
220
1.161831072613327E-8
230
0.9999999999999999
  0
LINE
  5
1C5
330
43
100
AcDbEntity
  8
CC-60401-0 Strip [REF] [12]
  6
Continuous
 62
   163
370
     0
100
AcDbLine
 10
-2.304902861451853
 20
-0.8600000415955718
 30
-0.0000000000000001
 11
-2.304902861451853
 21
-0.6249000415956223
 31
-0.0000000000000001
  0
ARC
  5
1C6
330
43
100
AcDbEntity
  8
CC-60401-0 Strip [REF] [12]
  6
Continuous
 62
     2
370
     0
100
AcDbCircle
 10
-0.0081476770318258
 20
1.880999958404428
 30
0.0000000000000004
 40
0.073
100
AcDbArc
 50
0.0
 51
90.0
  0
LINE
  5
1C7
330
43
100
AcDbEntity
  8
CC-60401-0 Strip [REF] [12]
  6
Continuous
 62
     2
370
     0
100
AcDbLine
 10
0.0648523229681737
 20
1.654999958404427
 30
0.0000000000000001
 11
0.0648523229681737
 21
1.880999958404428
 31
0.0000000000000001
  0
ARC
  5
1C8
330
43
100
AcDbEntity
  8
CC-60401-0 Strip [REF] [12]
  6
Continuous
 62
     2
370
     0
100
AcDbCircle
 10
0.0148523229681738
 20
1.654999958404428
 30
0.0000000000000004
 40
0.05
100
AcDbArc
 50
270.0
 51
0.0
  0
LINE
  5
1C9
330
43
100
AcDbEntity
  8
CC-60401-0 Strip [REF] [12]
  6
Continuous
 62
     2
370
     0
100
AcDbLine
 10
-0.0480944540976069
 20
1.604999958404428
 30
0.0000000000000001
 11
0.0148523229681738
 21
1.604999958404428
 31
0.0000000000000001
  0
LINE
  5
1CA
330
43
100
AcDbEntity
  8
CC-60401-0 Strip [REF] [12]
  6
Continuous
 62
     2
370
     0
100
AcDbLine
 10
-0.063477123560745
 20
1.619344529743874
 30
0.0000000000000001
 11
-0.0480944540976069
 21
1.604999958404428
 31
0.0000000000000001
  0
LINE
  5
1CB
330
43
100
AcDbEntity
  8
CC-60401-0 Strip [REF] [12]
  6
Continuous
 62
     2
370
     0
100
AcDbLine
 10
-0.1193684084018831
 20
1.802156685116951
 30
0.0000000000000001
 11
-0.0634771235607454
 21
1.619344529743874
 31
0.0000000000000001
  0
LINE
  5
1CC
330
43
100
AcDbEntity
  8
CC-60401-0 Strip [REF] [12]
  6
Continuous
 62
     2
370
     0
100
AcDbLine
 10
-0.1624021224202195
 20
1.788999958404427
 30
0.0000000000000001
 11
-0.1193684084018827
 21
1.802156685116951
 31
0.0000000000000001
  0
LINE
  5
1CD
330
43
100
AcDbEntity
  8
CC-60401-0 Strip [REF] [12]
  6
Continuous
 62
     2
370
     0
100
AcDbLine
 10
-0.1061476770318257
 20
1.604999958404428
 30
0.0000000000000001
 11
-0.1624021224202195
 21
1.788999958404427
 31
0.0000000000000001
  0
LINE
  5
1CE
330
43
100
AcDbEntity
  8
CC-60401-0 Strip [REF] [12]
  6
Continuous
 62
     2
370
     0
100
AcDbLine
 10
-0.1061476770318257
 20
0.3899999584044282
 30
0.0
 11
-0.1061476770318257
 21
1.604999958404428
 31
0.0000000000000001
  0
LINE
  5
1CF
330
43
100
AcDbEntity
  8
CC-60401-0 Strip [REF] [12]
  6
Continuous
 62
     2
370
     0
100
AcDbLine
 10
-0.1231476770318256
 20
0.359999958404428
 30
0.0
 11
-0.1061476770318257
 21
0.3899999584044282
 31
0.0
  0
LINE
  5
1D0
330
43
100
AcDbEntity
  8
CC-60401-0 Strip [REF] [12]
  6
Continuous
 62
     2
370
     0
100
AcDbLine
 10
-0.3561476770318257
 20
0.359999958404428
 30
0.0
 11
-0.1231476770318256
 21
0.359999958404428
 31
0.0
  0
LINE
  5
1D1
330
43
100
AcDbEntity
  8
CC-60401-0 Strip [REF] [12]
  6
Continuous
 62
     2
370
     0
100
AcDbLine
 10
-0.3809578308599657
 20
1.070469807415178
 30
0.0
 11
-0.3561476770318253
 21
0.359999958404428
 31
0.0
  0
ARC
  5
1D2
330
43
100
AcDbEntity
  8
CC-60401-0 Strip [REF] [12]
  6
Continuous
 62
     2
370
     0
100
AcDbCircle
 10
-0.680775078965695
 20
1.059999958404428
 30
0.0000000000000004
 40
0.3
100
AcDbArc
 50
1.999999999999765
 51
90.0
  0
LINE
  5
1D3
330
43
100
AcDbEntity
  8
CC-60401-0 Strip [REF] [12]
  6
Continuous
 62
     2
370
     0
100
AcDbLine
 10
-1.471520275097955
 20
1.359999958404428
 30
0.0000000000000001
 11
-0.680775078965695
 21
1.359999958404428
 31
0.0000000000000001
  0
ARC
  5
1D4
330
43
100
AcDbEntity
  8
CC-60401-0 Strip [REF] [12]
  6
Continuous
 62
     2
370
     0
100
AcDbCircle
 10
-1.471520275097955
 20
1.059999958404428
 30
0.0000000000000004
 40
0.3
100
AcDbArc
 50
89.99999999999987
 51
177.9999999999999
  0
LINE
  5
1D5
330
43
100
AcDbEntity
  8
CC-60401-0 Strip [REF] [12]
  6
Continuous
 62
     2
370
     0
100
AcDbLine
 10
-1.796147677031825
 20
0.359999958404428
 30
0.0
 11
-1.771337523203684
 21
1.070469807415178
 31
0.0
  0
LINE
  5
1D6
330
43
100
AcDbEntity
  8
CC-60401-0 Strip [REF] [12]
  6
Continuous
 62
     2
370
     0
100
AcDbLine
 10
-2.024647677031826
 20
0.359999958404428
 30
0.0
 11
-1.796147677031825
 21
0.359999958404428
 31
0.0
  0
LINE
  5
1D7
330
43
100
AcDbEntity
  8
CC-60401-0 Strip [REF] [12]
  6
Continuous
 62
     2
370
     0
100
AcDbLine
 10
-2.054647677031826
 20
0.3899999584044282
 30
0.0
 11
-2.024647677031826
 21
0.359999958404428
 31
0.0
  0
LINE
  5
1D8
330
43
100
AcDbEntity
  8
CC-60401-0 Strip [REF] [12]
  6
Continuous
 62
     2
370
     0
100
AcDbLine
 10
-2.054647677031826
 20
0.8619999584044278
 30
0.0
 11
-2.054647677031826
 21
0.3899999584044282
 31
0.0
  0
ARC
  5
1D9
330
43
100
AcDbEntity
  8
CC-60401-0 Strip [REF] [12]
  6
Continuous
 62
     2
370
     0
100
AcDbCircle
 10
-2.084647677031826
 20
0.8619999584044278
 30
0.0000000000000004
 40
0.03
100
AcDbArc
 50
0.0
 51
90.0
  0
LINE
  5
1DA
330
43
100
AcDbEntity
  8
CC-60401-0 Strip [REF] [12]
  6
Continuous
 62
     2
370
     0
100
AcDbLine
 10
-2.410647677031826
 20
0.891999958404428
 30
0.0
 11
-2.084647677031826
 21
0.891999958404428
 31
0.0
  0
LINE
  5
1DB
330
43
100
AcDbEntity
  8
CC-60401-0 Strip [REF] [12]
  6
Continuous
 62
     2
370
     0
100
AcDbLine
 10
-2.440647677031826
 20
0.9219999584044283
 30
0.0
 11
-2.410647677031826
 21
0.891999958404428
 31
0.0
  0
LINE
  5
1DC
330
43
100
AcDbEntity
  8
CC-60401-0 Strip [REF] [12]
  6
Continuous
 62
     2
370
     0
100
AcDbLine
 10
-2.440647677031826
 20
1.109999958404427
 30
0.0
 11
-2.440647677031826
 21
0.9219999584044283
 31
0.0
  0
LINE
  5
1DD
330
43
100
AcDbEntity
  8
CC-60401-0 Strip [REF] [12]
  6
Continuous
 62
     2
370
     0
100
AcDbLine
 10
-2.281876353004679
 20
1.384999958404427
 30
0.0000000000000001
 11
-2.440647677031826
 21
1.109999958404427
 31
0.0
  0
LINE
  5
1DE
330
43
100
AcDbEntity
  8
CC-60401-0 Strip [REF] [12]
  6
Continuous
 62
     2
370
     0
100
AcDbLine
 10
-2.269647677031826
 20
1.384999958404427
 30
0.0000000000000001
 11
-2.281876353004679
 21
1.384999958404427
 31
0.0000000000000001
  0
ARC
  5
1DF
330
43
100
AcDbEntity
  8
CC-60401-0 Strip [REF] [12]
  6
Continuous
 62
     2
370
     0
100
AcDbCircle
 10
-2.269647677031826
 20
1.430999958404429
 30
0.0000000000000004
 40
0.046
100
AcDbArc
 50
270.0
 51
0.0
  0
LINE
  5
1E0
330
43
100
AcDbEntity
  8
CC-60401-0 Strip [REF] [12]
  6
Continuous
 62
     2
370
     0
100
AcDbLine
 10
-2.223647677031826
 20
1.953999958404428
 30
0.0000000000000001
 11
-2.223647677031826
 21
1.430999958404429
 31
0.0000000000000001
  0
LINE
  5
1E1
330
43
100
AcDbEntity
  8
CC-60401-0 Strip [REF] [12]
  6
Continuous
 62
     2
370
     0
100
AcDbLine
 10
-0.0081476770318258
 20
1.953999958404428
 30
0.0000000000000001
 11
-2.223647677031826
 21
1.953999958404428
 31
0.0000000000000001
  0
LINE
  5
1E2
330
43
100
AcDbEntity
  8
CC-60401-0 Strip [REF] [12]
  6
Continuous
 62
     2
370
     0
100
AcDbLine
 10
-3.910647677031826
 20
1.430999958404429
 30
0.0000000000000001
 11
-3.910647677031826
 21
1.953999958404427
 31
0.0000000000000001
  0
ARC
  5
1E3
330
43
100
AcDbEntity
  8
CC-60401-0 Strip [REF] [12]
  6
Continuous
 62
     2
370
     0
100
AcDbCircle
 10
-3.864647677031826
 20
1.430999958404429
 30
0.0000000000000004
 40
0.046
100
AcDbArc
 50
180.0
 51
270.0
  0
LINE
  5
1E4
330
43
100
AcDbEntity
  8
CC-60401-0 Strip [REF] [12]
  6
Continuous
 62
     2
370
     0
100
AcDbLine
 10
-3.852419001058973
 20
1.384999958404427
 30
0.0000000000000001
 11
-3.864647677031826
 21
1.384999958404427
 31
0.0000000000000001
  0
LINE
  5
1E5
330
43
100
AcDbEntity
  8
CC-60401-0 Strip [REF] [12]
  6
Continuous
 62
     2
370
     0
100
AcDbLine
 10
-3.693647677031826
 20
1.109999958404427
 30
0.0
 11
-3.852419001058973
 21
1.384999958404427
 31
0.0000000000000001
  0
LINE
  5
1E6
330
43
100
AcDbEntity
  8
CC-60401-0 Strip [REF] [12]
  6
Continuous
 62
     2
370
     0
100
AcDbLine
 10
-3.693647677031826
 20
0.9219999584044283
 30
0.0
 11
-3.693647677031826
 21
1.109999958404427
 31
0.0
  0
LINE
  5
1E7
330
43
100
AcDbEntity
  8
CC-60401-0 Strip [REF] [12]
  6
Continuous
 62
     2
370
     0
100
AcDbLine
 10
-3.723647677031826
 20
0.891999958404428
 30
0.0
 11
-3.693647677031827
 21
0.9219999584044283
 31
0.0
  0
LINE
  5
1E8
330
43
100
AcDbEntity
  8
CC-60401-0 Strip [REF] [12]
  6
Continuous
 62
     2
370
     0
100
AcDbLine
 10
-4.049647677031826
 20
0.891999958404428
 30
0.0
 11
-3.723647677031826
 21
0.891999958404428
 31
0.0
  0
ARC
  5
1E9
330
43
100
AcDbEntity
  8
CC-60401-0 Strip [REF] [12]
  6
Continuous
 62
     2
370
     0
100
AcDbCircle
 10
-4.049647677031826
 20
0.8619999584044278
 30
0.0000000000000004
 40
0.03
100
AcDbArc
 50
90.0
 51
180.0
  0
LINE
  5
1EA
330
43
100
AcDbEntity
  8
CC-60401-0 Strip [REF] [12]
  6
Continuous
 62
     2
370
     0
100
AcDbLine
 10
-4.079647677031826
 20
0.3899999584044282
 30
0.0
 11
-4.079647677031826
 21
0.8619999584044278
 31
0.0
  0
LINE
  5
1EB
330
43
100
AcDbEntity
  8
CC-60401-0 Strip [REF] [12]
  6
Continuous
 62
     2
370
     0
100
AcDbLine
 10
-4.109647677031826
 20
0.359999958404428
 30
0.0
 11
-4.079647677031826
 21
0.3899999584044282
 31
0.0
  0
LINE
  5
1EC
330
43
100
AcDbEntity
  8
CC-60401-0 Strip [REF] [12]
  6
Continuous
 62
     2
370
     0
100
AcDbLine
 10
-4.338147677031826
 20
0.359999958404428
 30
0.0
 11
-4.109647677031826
 21
0.359999958404428
 31
0.0
  0
LINE
  5
1ED
330
43
100
AcDbEntity
  8
CC-60401-0 Strip [REF] [12]
  6
Continuous
 62
     2
370
     0
100
AcDbLine
 10
-4.362957830859967
 20
1.070469807415178
 30
0.0
 11
-4.338147677031826
 21
0.359999958404428
 31
0.0
  0
ARC
  5
1EE
330
43
100
AcDbEntity
  8
CC-60401-0 Strip [REF] [12]
  6
Continuous
 62
     2
370
     0
100
AcDbCircle
 10
-4.662775078965696
 20
1.059999958404428
 30
0.0000000000000004
 40
0.3
100
AcDbArc
 50
1.999999999999765
 51
90.0
  0
LINE
  5
1EF
330
43
100
AcDbEntity
  8
CC-60401-0 Strip [REF] [12]
  6
Continuous
 62
     2
370
     0
100
AcDbLine
 10
-5.453520275097958
 20
1.359999958404428
 30
0.0000000000000001
 11
-4.662775078965697
 21
1.359999958404428
 31
0.0000000000000001
  0
ARC
  5
1F0
330
43
100
AcDbEntity
  8
CC-60401-0 Strip [REF] [12]
  6
Continuous
 62
     2
370
     0
100
AcDbCircle
 10
-5.453520275097957
 20
1.059999958404428
 30
0.0000000000000004
 40
0.3
100
AcDbArc
 50
90.0
 51
177.9999999999999
  0
LINE
  5
1F1
330
43
100
AcDbEntity
  8
CC-60401-0 Strip [REF] [12]
  6
Continuous
 62
     2
370
     0
100
AcDbLine
 10
-5.778147677031827
 20
0.359999958404428
 30
0.0
 11
-5.753337523203687
 21
1.070469807415178
 31
0.0
  0
LINE
  5
1F2
330
43
100
AcDbEntity
  8
CC-60401-0 Strip [REF] [12]
  6
Continuous
 62
     2
370
     0
100
AcDbLine
 10
-6.011147677031826
 20
0.359999958404428
 30
0.0
 11
-5.778147677031826
 21
0.359999958404428
 31
0.0
  0
LINE
  5
1F3
330
43
100
AcDbEntity
  8
CC-60401-0 Strip [REF] [12]
  6
Continuous
 62
     2
370
     0
100
AcDbLine
 10
-6.028147677031827
 20
0.3899999584044282
 30
0.0
 11
-6.011147677031826
 21
0.359999958404428
 31
0.0
  0
LINE
  5
1F4
330
43
100
AcDbEntity
  8
CC-60401-0 Strip [REF] [12]
  6
Continuous
 62
     2
370
     0
100
AcDbLine
 10
-6.028147677031827
 20
1.604999958404428
 30
0.0000000000000001
 11
-6.028147677031827
 21
0.3899999584044282
 31
0.0
  0
LINE
  5
1F5
330
43
100
AcDbEntity
  8
CC-60401-0 Strip [REF] [12]
  6
Continuous
 62
     2
370
     0
100
AcDbLine
 10
-5.971893231643433
 20
1.788999958404427
 30
0.0000000000000001
 11
-6.028147677031827
 21
1.604999958404428
 31
0.0000000000000001
  0
LINE
  5
1F6
330
43
100
AcDbEntity
  8
CC-60401-0 Strip [REF] [12]
  6
Continuous
 62
     2
370
     0
100
AcDbLine
 10
-6.014926945661769
 20
1.802156685116951
 30
0.0000000000000001
 11
-5.971893231643433
 21
1.788999958404427
 31
0.0000000000000001
  0
LINE
  5
1F7
330
43
100
AcDbEntity
  8
CC-60401-0 Strip [REF] [12]
  6
Continuous
 62
     2
370
     0
100
AcDbLine
 10
-6.070818230502907
 20
1.619344529743874
 30
0.0000000000000001
 11
-6.014926945661768
 21
1.802156685116951
 31
0.0000000000000001
  0
LINE
  5
1F8
330
43
100
AcDbEntity
  8
CC-60401-0 Strip [REF] [12]
  6
Continuous
 62
     2
370
     0
100
AcDbLine
 10
-6.086200899966045
 20
1.604999958404428
 30
0.0000000000000001
 11
-6.070818230502907
 21
1.619344529743874
 31
0.0000000000000001
  0
LINE
  5
1F9
330
43
100
AcDbEntity
  8
CC-60401-0 Strip [REF] [12]
  6
Continuous
 62
     2
370
     0
100
AcDbLine
 10
-6.149147677031826
 20
1.604999958404428
 30
0.0000000000000001
 11
-6.086200899966046
 21
1.604999958404428
 31
0.0000000000000001
  0
ARC
  5
1FA
330
43
100
AcDbEntity
  8
CC-60401-0 Strip [REF] [12]
  6
Continuous
 62
     2
370
     0
100
AcDbCircle
 10
-6.149147677031825
 20
1.654999958404428
 30
0.0000000000000004
 40
0.05
100
AcDbArc
 50
180.0
 51
270.0
  0
LINE
  5
1FB
330
43
100
AcDbEntity
  8
CC-60401-0 Strip [REF] [12]
  6
Continuous
 62
     2
370
     0
100
AcDbLine
 10
-6.199147677031826
 20
1.880999958404428
 30
0.0000000000000001
 11
-6.199147677031826
 21
1.654999958404427
 31
0.0000000000000001
  0
ARC
  5
1FC
330
43
100
AcDbEntity
  8
CC-60401-0 Strip [REF] [12]
  6
Continuous
 62
     2
370
     0
100
AcDbCircle
 10
-6.126147677031826
 20
1.880999958404428
 30
0.0000000000000004
 40
0.073
100
AcDbArc
 50
90.0
 51
180.0
  0
LINE
  5
1FD
330
43
100
AcDbEntity
  8
CC-60401-0 Strip [REF] [12]
  6
Continuous
 62
     2
370
     0
100
AcDbLine
 10
-3.910647677031826
 20
1.953999958404428
 30
0.0000000000000001
 11
-6.126147677031826
 21
1.953999958404428
 31
0.0000000000000001
  0
ARC
  5
1FE
330
43
100
AcDbEntity
  8
CC-60401-0 Strip [REF] [12]
  6
Continuous
 62
     2
370
     0
100
AcDbCircle
 10
-6.126147677031826
 20
-1.161000041595572
 30
0.0000000000000004
 40
0.073
100
AcDbArc
 50
180.0
 51
270.0
  0
LINE
  5
1FF
330
43
100
AcDbEntity
  8
CC-60401-0 Strip [REF] [12]
  6
Continuous
 62
     2
370
     0
100
AcDbLine
 10
-6.199147677031826
 20
-0.935000041595571
 30
-0.0000000000000001
 11
-6.199147677031826
 21
-1.161000041595572
 31
-0.0000000000000001
  0
ARC
  5
200
330
43
100
AcDbEntity
  8
CC-60401-0 Strip [REF] [12]
  6
Continuous
 62
     2
370
     0
100
AcDbCircle
 10
-6.149147677031825
 20
-0.935000041595571
 30
0.0000000000000004
 40
0.05
100
AcDbArc
 50
90.0
 51
180.0
  0
LINE
  5
201
330
43
100
AcDbEntity
  8
CC-60401-0 Strip [REF] [12]
  6
Continuous
 62
     2
370
     0
100
AcDbLine
 10
-6.086200899966046
 20
-0.8850000415955721
 30
-0.0000000000000001
 11
-6.149147677031826
 21
-0.8850000415955721
 31
-0.0000000000000001
  0
LINE
  5
202
330
43
100
AcDbEntity
  8
CC-60401-0 Strip [REF] [12]
  6
Continuous
 62
     2
370
     0
100
AcDbLine
 10
-6.070818230502907
 20
-0.8993446129350167
 30
-0.0000000000000001
 11
-6.086200899966045
 21
-0.8850000415955721
 31
-0.0000000000000001
  0
LINE
  5
203
330
43
100
AcDbEntity
  8
CC-60401-0 Strip [REF] [12]
  6
Continuous
 62
     2
370
     0
100
AcDbLine
 10
-6.014926945661768
 20
-1.082156768308095
 30
-0.0000000000000001
 11
-6.070818230502907
 21
-0.8993446129350167
 31
-0.0000000000000001
  0
LINE
  5
204
330
43
100
AcDbEntity
  8
CC-60401-0 Strip [REF] [12]
  6
Continuous
 62
     2
370
     0
100
AcDbLine
 10
-5.971893231643433
 20
-1.069000041595571
 30
-0.0000000000000001
 11
-6.014926945661769
 21
-1.082156768308095
 31
-0.0000000000000001
  0
LINE
  5
205
330
43
100
AcDbEntity
  8
CC-60401-0 Strip [REF] [12]
  6
Continuous
 62
     2
370
     0
100
AcDbLine
 10
-6.028147677031827
 20
-0.8850000415955721
 30
-0.0000000000000001
 11
-5.971893231643433
 21
-1.069000041595571
 31
-0.0000000000000001
  0
LINE
  5
206
330
43
100
AcDbEntity
  8
CC-60401-0 Strip [REF] [12]
  6
Continuous
 62
     2
370
     0
100
AcDbLine
 10
-6.028147677031827
 20
0.3299999584044278
 30
0.0
 11
-6.028147677031827
 21
-0.8850000415955721
 31
-0.0000000000000001
  0
LINE
  5
207
330
43
100
AcDbEntity
  8
CC-60401-0 Strip [REF] [12]
  6
Continuous
 62
     2
370
     0
100
AcDbLine
 10
-6.011147677031826
 20
0.359999958404428
 30
0.0
 11
-6.028147677031827
 21
0.3299999584044278
 31
0.0
  0
LINE
  5
208
330
43
100
AcDbEntity
  8
CC-60401-0 Strip [REF] [12]
  6
Continuous
 62
     2
370
     0
100
AcDbLine
 10
-5.778147677031826
 20
0.359999958404428
 30
0.0
 11
-6.011147677031826
 21
0.359999958404428
 31
0.0
  0
LINE
  5
209
330
43
100
AcDbEntity
  8
CC-60401-0 Strip [REF] [12]
  6
Continuous
 62
     2
370
     0
100
AcDbLine
 10
-5.753337523203687
 20
-0.3504698906063224
 30
0.0
 11
-5.778147677031827
 21
0.359999958404428
 31
0.0
  0
ARC
  5
20A
330
43
100
AcDbEntity
  8
CC-60401-0 Strip [REF] [12]
  6
Continuous
 62
     2
370
     0
100
AcDbCircle
 10
-5.453520275097957
 20
-0.3400000415955722
 30
0.0000000000000004
 40
0.3
100
AcDbArc
 50
182.0000000000001
 51
270.0
  0
LINE
  5
20B
330
43
100
AcDbEntity
  8
CC-60401-0 Strip [REF] [12]
  6
Continuous
 62
     2
370
     0
100
AcDbLine
 10
-4.662775078965697
 20
-0.6400000415955711
 30
-0.0000000000000001
 11
-5.453520275097958
 21
-0.6400000415955711
 31
-0.0000000000000001
  0
ARC
  5
20C
330
43
100
AcDbEntity
  8
CC-60401-0 Strip [REF] [12]
  6
Continuous
 62
     2
370
     0
100
AcDbCircle
 10
-4.662775078965696
 20
-0.3400000415955722
 30
0.0000000000000004
 40
0.3
100
AcDbArc
 50
269.9999999999998
 51
357.9999999999999
  0
LINE
  5
20D
330
43
100
AcDbEntity
  8
CC-60401-0 Strip [REF] [12]
  6
Continuous
 62
     2
370
     0
100
AcDbLine
 10
-4.338147677031826
 20
0.359999958404428
 30
0.0
 11
-4.362957830859967
 21
-0.3504698906063224
 31
0.0
  0
LINE
  5
20E
330
43
100
AcDbEntity
  8
CC-60401-0 Strip [REF] [12]
  6
Continuous
 62
     2
370
     0
100
AcDbLine
 10
-4.109647677031826
 20
0.359999958404428
 30
0.0
 11
-4.338147677031826
 21
0.359999958404428
 31
0.0
  0
LINE
  5
20F
330
43
100
AcDbEntity
  8
CC-60401-0 Strip [REF] [12]
  6
Continuous
 62
     2
370
     0
100
AcDbLine
 10
-4.079647677031826
 20
0.3299999584044278
 30
0.0
 11
-4.109647677031826
 21
0.359999958404428
 31
0.0
  0
LINE
  5
210
330
43
100
AcDbEntity
  8
CC-60401-0 Strip [REF] [12]
  6
Continuous
 62
     2
370
     0
100
AcDbLine
 10
-4.079647677031826
 20
-0.1420000415955718
 30
0.0
 11
-4.079647677031826
 21
0.3299999584044278
 31
0.0
  0
ARC
  5
211
330
43
100
AcDbEntity
  8
CC-60401-0 Strip [REF] [12]
  6
Continuous
 62
     2
370
     0
100
AcDbCircle
 10
-4.049647677031826
 20
-0.1420000415955718
 30
0.0000000000000004
 40
0.03
100
AcDbArc
 50
180.0
 51
270.0
  0
LINE
  5
212
330
43
100
AcDbEntity
  8
CC-60401-0 Strip [REF] [12]
  6
Continuous
 62
     2
370
     0
100
AcDbLine
 10
-3.723647677031826
 20
-0.1720000415955711
 30
0.0
 11
-4.049647677031826
 21
-0.1720000415955711
 31
0.0
  0
LINE
  5
213
330
43
100
AcDbEntity
  8
CC-60401-0 Strip [REF] [12]
  6
Continuous
 62
     2
370
     0
100
AcDbLine
 10
-3.693647677031827
 20
-0.2020000415955723
 30
0.0
 11
-3.723647677031826
 21
-0.1720000415955711
 31
0.0
  0
LINE
  5
214
330
43
100
AcDbEntity
  8
CC-60401-0 Strip [REF] [12]
  6
Continuous
 62
     2
370
     0
100
AcDbLine
 10
-3.693647677031826
 20
-0.3900000415955711
 30
0.0
 11
-3.693647677031826
 21
-0.2020000415955723
 31
0.0
  0
LINE
  5
215
330
43
100
AcDbEntity
  8
CC-60401-0 Strip [REF] [12]
  6
Continuous
 62
     2
370
     0
100
AcDbLine
 10
-3.852419001058973
 20
-0.6650000415955715
 30
-0.0000000000000001
 11
-3.693647677031826
 21
-0.3900000415955711
 31
0.0
  0
LINE
  5
216
330
43
100
AcDbEntity
  8
CC-60401-0 Strip [REF] [12]
  6
Continuous
 62
     2
370
     0
100
AcDbLine
 10
-3.864647677031826
 20
-0.6650000415955715
 30
-0.0000000000000001
 11
-3.852419001058973
 21
-0.6650000415955715
 31
-0.0000000000000001
  0
ARC
  5
217
330
43
100
AcDbEntity
  8
CC-60401-0 Strip [REF] [12]
  6
Continuous
 62
     2
370
     0
100
AcDbCircle
 10
-3.864647677031826
 20
-0.7110000415955726
 30
0.0000000000000004
 40
0.046
100
AcDbArc
 50
90.0
 51
180.0
  0
LINE
  5
218
330
43
100
AcDbEntity
  8
CC-60401-0 Strip [REF] [12]
  6
Continuous
 62
     2
370
     0
100
AcDbLine
 10
-3.910647677031826
 20
-1.234000041595572
 30
-0.0000000000000001
 11
-3.910647677031826
 21
-0.7110000415955726
 31
-0.0000000000000001
  0
LINE
  5
219
330
43
100
AcDbEntity
  8
CC-60401-0 Strip [REF] [12]
  6
Continuous
 62
     2
370
     0
100
AcDbLine
 10
-6.126147677031826
 20
-1.234000041595572
 30
-0.0000000000000001
 11
-3.910647677031826
 21
-1.234000041595572
 31
-0.0000000000000001
  0
LINE
  5
21A
330
43
100
AcDbEntity
  8
CC-60401-0 Strip [REF] [12]
  6
Continuous
 62
     2
370
     0
100
AcDbLine
 10
-2.223647677031826
 20
-0.7110000415955726
 30
-0.0000000000000001
 11
-2.223647677031826
 21
-1.234000041595572
 31
-0.0000000000000001
  0
ARC
  5
21B
330
43
100
AcDbEntity
  8
CC-60401-0 Strip [REF] [12]
  6
Continuous
 62
     2
370
     0
100
AcDbCircle
 10
-2.269647677031826
 20
-0.7110000415955726
 30
0.0000000000000004
 40
0.046
100
AcDbArc
 50
0.0
 51
90.0
  0
LINE
  5
21C
330
43
100
AcDbEntity
  8
CC-60401-0 Strip [REF] [12]
  6
Continuous
 62
     2
370
     0
100
AcDbLine
 10
-2.281876353004679
 20
-0.6650000415955715
 30
-0.0000000000000001
 11
-2.269647677031826
 21
-0.6650000415955715
 31
-0.0000000000000001
  0
LINE
  5
21D
330
43
100
AcDbEntity
  8
CC-60401-0 Strip [REF] [12]
  6
Continuous
 62
     2
370
     0
100
AcDbLine
 10
-2.440647677031826
 20
-0.3900000415955711
 30
0.0
 11
-2.281876353004679
 21
-0.6650000415955715
 31
-0.0000000000000001
  0
LINE
  5
21E
330
43
100
AcDbEntity
  8
CC-60401-0 Strip [REF] [12]
  6
Continuous
 62
     2
370
     0
100
AcDbLine
 10
-2.440647677031826
 20
-0.2020000415955723
 30
0.0
 11
-2.440647677031826
 21
-0.3900000415955711
 31
0.0
  0
LINE
  5
21F
330
43
100
AcDbEntity
  8
CC-60401-0 Strip [REF] [12]
  6
Continuous
 62
     2
370
     0
100
AcDbLine
 10
-2.410647677031826
 20
-0.1720000415955711
 30
0.0
 11
-2.440647677031826
 21
-0.2020000415955723
 31
0.0
  0
LINE
  5
220
330
43
100
AcDbEntity
  8
CC-60401-0 Strip [REF] [12]
  6
Continuous
 62
     2
370
     0
100
AcDbLine
 10
-2.084647677031826
 20
-0.1720000415955711
 30
0.0
 11
-2.410647677031826
 21
-0.1720000415955711
 31
0.0
  0
ARC
  5
221
330
43
100
AcDbEntity
  8
CC-60401-0 Strip [REF] [12]
  6
Continuous
 62
     2
370
     0
100
AcDbCircle
 10
-2.084647677031826
 20
-0.1420000415955718
 30
0.0000000000000004
 40
0.03
100
AcDbArc
 50
270.0
 51
0.0
  0
LINE
  5
222
330
43
100
AcDbEntity
  8
CC-60401-0 Strip [REF] [12]
  6
Continuous
 62
     2
370
     0
100
AcDbLine
 10
-2.054647677031826
 20
0.3299999584044278
 30
0.0
 11
-2.054647677031826
 21
-0.1420000415955718
 31
0.0
  0
LINE
  5
223
330
43
100
AcDbEntity
  8
CC-60401-0 Strip [REF] [12]
  6
Continuous
 62
     2
370
     0
100
AcDbLine
 10
-2.024647677031826
 20
0.359999958404428
 30
0.0
 11
-2.054647677031826
 21
0.3299999584044278
 31
0.0
  0
LINE
  5
224
330
43
100
AcDbEntity
  8
CC-60401-0 Strip [REF] [12]
  6
Continuous
 62
     2
370
     0
100
AcDbLine
 10
-1.796147677031825
 20
0.359999958404428
 30
0.0
 11
-2.024647677031826
 21
0.359999958404428
 31
0.0
  0
LINE
  5
225
330
43
100
AcDbEntity
  8
CC-60401-0 Strip [REF] [12]
  6
Continuous
 62
     2
370
     0
100
AcDbLine
 10
-1.771337523203684
 20
-0.3504698906063224
 30
0.0
 11
-1.796147677031825
 21
0.359999958404428
 31
0.0
  0
ARC
  5
226
330
43
100
AcDbEntity
  8
CC-60401-0 Strip [REF] [12]
  6
Continuous
 62
     2
370
     0
100
AcDbCircle
 10
-1.471520275097955
 20
-0.3400000415955722
 30
0.0000000000000004
 40
0.3
100
AcDbArc
 50
181.9999999999997
 51
270.0
  0
LINE
  5
227
330
43
100
AcDbEntity
  8
CC-60401-0 Strip [REF] [12]
  6
Continuous
 62
     2
370
     0
100
AcDbLine
 10
-0.680775078965695
 20
-0.6400000415955711
 30
-0.0000000000000001
 11
-1.471520275097955
 21
-0.6400000415955711
 31
-0.0000000000000001
  0
ARC
  5
228
330
43
100
AcDbEntity
  8
CC-60401-0 Strip [REF] [12]
  6
Continuous
 62
     2
370
     0
100
AcDbCircle
 10
-0.680775078965695
 20
-0.3400000415955722
 30
0.0000000000000004
 40
0.3
100
AcDbArc
 50
270.0
 51
358.0000000000002
  0
LINE
  5
229
330
43
100
AcDbEntity
  8
CC-60401-0 Strip [REF] [12]
  6
Continuous
 62
     2
370
     0
100
AcDbLine
 10
-0.3561476770318253
 20
0.359999958404428
 30
0.0
 11
-0.3809578308599657
 21
-0.3504698906063224
 31
0.0
  0
LINE
  5
22A
330
43
100
AcDbEntity
  8
CC-60401-0 Strip [REF] [12]
  6
Continuous
 62
     2
370
     0
100
AcDbLine
 10
-0.1231476770318256
 20
0.359999958404428
 30
0.0
 11
-0.3561476770318257
 21
0.359999958404428
 31
0.0
  0
LINE
  5
22B
330
43
100
AcDbEntity
  8
CC-60401-0 Strip [REF] [12]
  6
Continuous
 62
     2
370
     0
100
AcDbLine
 10
-0.1061476770318257
 20
0.3299999584044278
 30
0.0
 11
-0.1231476770318256
 21
0.359999958404428
 31
0.0
  0
LINE
  5
22C
330
43
100
AcDbEntity
  8
CC-60401-0 Strip [REF] [12]
  6
Continuous
 62
     2
370
     0
100
AcDbLine
 10
-0.1061476770318257
 20
-0.8850000415955721
 30
-0.0000000000000001
 11
-0.1061476770318257
 21
0.3299999584044278
 31
0.0
  0
LINE
  5
22D
330
43
100
AcDbEntity
  8
CC-60401-0 Strip [REF] [12]
  6
Continuous
 62
     2
370
     0
100
AcDbLine
 10
-0.1624021224202195
 20
-1.069000041595571
 30
-0.0000000000000001
 11
-0.1061476770318257
 21
-0.8850000415955721
 31
-0.0000000000000001
  0
LINE
  5
22E
330
43
100
AcDbEntity
  8
CC-60401-0 Strip [REF] [12]
  6
Continuous
 62
     2
370
     0
100
AcDbLine
 10
-0.1193684084018827
 20
-1.082156768308095
 30
-0.0000000000000001
 11
-0.1624021224202195
 21
-1.069000041595571
 31
-0.0000000000000001
  0
LINE
  5
22F
330
43
100
AcDbEntity
  8
CC-60401-0 Strip [REF] [12]
  6
Continuous
 62
     2
370
     0
100
AcDbLine
 10
-0.063477123560745
 20
-0.8993446129350167
 30
-0.0000000000000001
 11
-0.1193684084018831
 21
-1.082156768308095
 31
-0.0000000000000001
  0
LINE
  5
230
330
43
100
AcDbEntity
  8
CC-60401-0 Strip [REF] [12]
  6
Continuous
 62
     2
370
     0
100
AcDbLine
 10
-0.0480944540976069
 20
-0.8850000415955721
 30
-0.0000000000000001
 11
-0.063477123560745
 21
-0.8993446129350167
 31
-0.0000000000000001
  0
LINE
  5
231
330
43
100
AcDbEntity
  8
CC-60401-0 Strip [REF] [12]
  6
Continuous
 62
     2
370
     0
100
AcDbLine
 10
0.0148523229681738
 20
-0.8850000415955721
 30
-0.0000000000000001
 11
-0.0480944540976069
 21
-0.8850000415955721
 31
-0.0000000000000001
  0
ARC
  5
232
330
43
100
AcDbEntity
  8
CC-60401-0 Strip [REF] [12]
  6
Continuous
 62
     2
370
     0
100
AcDbCircle
 10
0.0148523229681738
 20
-0.935000041595571
 30
0.0000000000000004
 40
0.05
100
AcDbArc
 50
0.0
 51
89.99999999999999
  0
LINE
  5
233
330
43
100
AcDbEntity
  8
CC-60401-0 Strip [REF] [12]
  6
Continuous
 62
     2
370
     0
100
AcDbLine
 10
0.0648523229681737
 20
-1.161000041595572
 30
-0.0000000000000001
 11
0.0648523229681737
 21
-0.935000041595571
 31
-0.0000000000000001
  0
ARC
  5
234
330
43
100
AcDbEntity
  8
CC-60401-0 Strip [REF] [12]
  6
Continuous
 62
     2
370
     0
100
AcDbCircle
 10
-0.0081476770318258
 20
-1.161000041595572
 30
0.0000000000000004
 40
0.073
100
AcDbArc
 50
270.0
 51
0.0
  0
LINE
  5
235
330
43
100
AcDbEntity
  8
CC-60401-0 Strip [REF] [12]
  6
Continuous
 62
     2
370
     0
100
AcDbLine
 10
-2.223647677031826
 20
-1.234000041595572
 30
-0.0000000000000001
 11
-0.0081476770318258
 21
-1.234000041595572
 31
-0.0000000000000001
  0
LINE
  5
236
330
43
100
AcDbEntity
  8
CC-60401-0 Strip [REF] [12]
  6
Continuous
 62
    23
370
     0
100
AcDbLine
 10
-4.067147677031826
 20
-0.0940000415955717
 30
0.0
 11
-4.022114377031826
 21
-0.1720000415955711
 31
0.0
  0
LINE
  5
237
330
43
100
AcDbEntity
  8
CC-60401-0 Strip [REF] [12]
  6
Continuous
 62
    23
370
     0
100
AcDbLine
 10
-4.067147677031826
 20
0.7999999584044284
 30
0.0
 11
-4.067147677031826
 21
-0.0940000415955717
 31
0.0
  0
LINE
  5
238
330
43
100
AcDbEntity
  8
CC-60401-0 Strip [REF] [12]
  6
Continuous
 62
    23
370
     0
100
AcDbLine
 10
-4.022114377031826
 20
0.8779999584044278
 30
0.0
 11
-4.067147677031826
 21
0.7999999584044284
 31
0.0
  0
LINE
  5
239
330
43
100
AcDbEntity
  8
CC-60401-0 Strip [REF] [12]
  6
Continuous
 62
    23
370
     0
100
AcDbLine
 10
-4.012147677031826
 20
0.8779999584044278
 30
0.0
 11
-4.022114377031826
 21
0.8779999584044278
 31
0.0
  0
LINE
  5
23A
330
43
100
AcDbEntity
  8
CC-60401-0 Strip [REF] [12]
  6
Continuous
 62
    23
370
     0
100
AcDbLine
 10
-4.002147677031826
 20
0.867999958404428
 30
0.0
 11
-4.012147677031826
 21
0.8779999584044278
 31
0.0
  0
LINE
  5
23B
330
43
100
AcDbEntity
  8
CC-60401-0 Strip [REF] [12]
  6
Continuous
 62
    23
370
     0
100
AcDbLine
 10
-4.002147677031826
 20
-0.1620000415955714
 30
0.0
 11
-4.002147677031826
 21
0.867999958404428
 31
0.0
  0
LINE
  5
23C
330
43
100
AcDbEntity
  8
CC-60401-0 Strip [REF] [12]
  6
Continuous
 62
    23
370
     0
100
AcDbLine
 10
-4.012147677031826
 20
-0.1720000415955711
 30
0.0
 11
-4.002147677031826
 21
-0.1620000415955714
 31
0.0
  0
ENDBLK
  5
23E
330
43
100
AcDbEntity
  8
0
100
AcDbBlockEnd
  0
BLOCK
  5
56
330
45
100
AcDbEntity
  8
0
100
AcDbBlockBegin
  2
CK_HATCH_0001
 70
     0
 71
     0
 10
0.0
 20
0.0
 30
0.0
  3
CK_HATCH_0001
  1

  0
LINE
  5
46
330
45
100
AcDbEntity
  8
CC-60401-0 Strip [REF] [12]
  6
DASHED
 62
     8
 48
2.0
370
     0
100
AcDbLine
 10
-1.581351757049561
 20
2.212790489196777
 30
0.0
 11
-1.504440546035767
 21
2.212790489196777
 31
0.0
  0
LINE
  5
47
330
45
100
AcDbEntity
  8
CC-60401-0 Strip [REF] [12]
  6
DASHED
 62
     8
 48
2.0
370
     0
100
AcDbLine
 10
-1.544978737831116
 20
2.275790452957153
 30
0.0
 11
-1.395325422286987
 21
2.275790452957153
 31
0.0
  0
LINE
  5
48
330
45
100
AcDbEntity
  8
CC-60401-0 Strip [REF] [12]
  6
DASHED
 62
     8
 48
2.0
370
     0
100
AcDbLine
 10
-1.508605718612671
 20
2.338790416717529
 30
0.0
 11
-1.311171174049377
 21
2.338790416717529
 31
0.0
  0
LINE
  5
49
330
45
100
AcDbEntity
  8
CC-60401-0 Strip [REF] [12]
  6
DASHED
 62
     8
 48
2.0
370
     0
100
AcDbLine
 10
-1.472232580184937
 20
2.401790618896484
 30
0.0
 11
-1.274798154830933
 21
2.401790618896484
 31
0.0
  0
LINE
  5
4A
330
45
100
AcDbEntity
  8
CC-60401-0 Strip [REF] [12]
  6
DASHED
 62
     8
 48
2.0
370
     0
100
AcDbLine
 10
-1.435859560966492
 20
2.46479058265686
 30
0.0
 11
-1.238425135612488
 21
2.46479058265686
 31
0.0
  0
LINE
  5
4B
330
45
100
AcDbEntity
  8
CC-60401-0 Strip [REF] [12]
  6
DASHED
 62
     8
 48
2.0
370
     0
100
AcDbLine
 10
-1.399486422538757
 20
2.527790546417236
 30
0.0
 11
-1.21826171875
 21
2.527790546417236
 31
0.0
  0
LINE
  5
4C
330
45
100
AcDbEntity
  8
CC-60401-0 Strip [REF] [12]
  6
DASHED
 62
     8
 48
2.0
370
     0
100
AcDbLine
 10
-1.363113403320312
 20
2.590790510177612
 30
0.0
 11
-1.327380895614624
 21
2.590790510177612
 31
0.0
  0
LINE
  5
4D
330
45
100
AcDbEntity
  8
CC-60401-0 Strip [REF] [12]
  6
DASHED
 62
     8
 48
2.0
370
     0
100
AcDbLine
 10
-2.643911600112915
 20
2.779790639877319
 30
0.0
 11
-2.619454383850098
 21
2.779790639877319
 31
0.0
  0
LINE
  5
4E
330
45
100
AcDbEntity
  8
CC-60401-0 Strip [REF] [12]
  6
DASHED
 62
     8
 48
2.0
370
     0
100
AcDbLine
 10
-2.643904685974121
 20
2.842790603637695
 30
0.0
 11
-2.583081245422363
 21
2.842790603637695
 31
0.0
  0
LINE
  5
4F
330
45
100
AcDbEntity
  8
CC-60401-0 Strip [REF] [12]
  6
DASHED
 62
     8
 48
2.0
370
     0
100
AcDbLine
 10
-2.643900394439697
 20
2.905790567398071
 30
0.0
 11
-2.546708106994629
 21
2.905790567398071
 31
0.0
  0
LINE
  5
50
330
45
100
AcDbEntity
  8
CC-60401-0 Strip [REF] [12]
  6
DASHED
 62
     8
 48
2.0
370
     0
100
AcDbLine
 10
-2.643900156021118
 20
2.968790531158447
 30
0.0
 11
-2.510335206985474
 21
2.968790531158447
 31
0.0
  0
LINE
  5
51
330
45
100
AcDbEntity
  8
CC-60401-0 Strip [REF] [12]
  6
DASHED
 62
     8
 48
2.0
370
     0
100
AcDbLine
 10
-2.643900871276855
 20
3.031790494918823
 30
0.0
 11
-2.473962068557739
 21
3.031790494918823
 31
0.0
  0
LINE
  5
52
330
45
100
AcDbEntity
  8
CC-60401-0 Strip [REF] [12]
  6
DASHED
 62
     8
 48
2.0
370
     0
100
AcDbLine
 10
-2.635023355484009
 20
3.094790458679199
 30
0.0
 11
-2.437588930130005
 21
3.094790458679199
 31
0.0
  0
LINE
  5
53
330
45
100
AcDbEntity
  8
CC-60401-0 Strip [REF] [12]
  6
DASHED
 62
     8
 48
2.0
370
     0
100
AcDbLine
 10
-2.598650455474854
 20
3.157790422439575
 30
0.0
 11
-2.40121603012085
 21
3.157790422439575
 31
0.0
  0
LINE
  5
54
330
45
100
AcDbEntity
  8
CC-60401-0 Strip [REF] [12]
  6
DASHED
 62
     8
 48
2.0
370
     0
100
AcDbLine
 10
-2.562277317047119
 20
3.22079062461853
 30
0.0
 11
-2.418572902679443
 21
3.22079062461853
 31
0.0
  0
ENDBLK
  5
57
330
45
100
AcDbEntity
  8
0
100
AcDbBlockEnd
  0
BLOCK
  5
66
330
58
100
AcDbEntity
  8
0
100
AcDbBlockBegin
  2
CK_HATCH_0002
 70
     0
 71
     0
 10
0.0
 20
0.0
 30
0.0
  3
CK_HATCH_0002
  1

  0
LINE
  5
59
330
58
100
AcDbEntity
  8
CC-60401-0 Strip [REF] [12]
  6
Continuous
 62
     8
 48
2.0
370
     0
100
AcDbLine
 10
2.749031066894531
 20
2.555357217788696
 30
0.0
 11
2.946465492248535
 21
2.555357217788696
 31
0.0
  0
LINE
  5
5A
330
58
100
AcDbEntity
  8
CC-60401-0 Strip [REF] [12]
  6
Continuous
 62
     8
 48
2.0
370
     0
100
AcDbLine
 10
2.785403966903687
 20
2.49235725402832
 30
0.0
 11
2.98283839225769
 21
2.49235725402832
 31
0.0
  0
LINE
  5
5B
330
58
100
AcDbEntity
  8
CC-60401-0 Strip [REF] [12]
  6
Continuous
 62
     8
 48
2.0
370
     0
100
AcDbLine
 10
2.821777105331421
 20
2.429357051849365
 30
0.0
 11
3.00390100479126
 21
2.429357051849365
 31
0.0
  0
LINE
  5
5C
330
58
100
AcDbEntity
  8
CC-60401-0 Strip [REF] [12]
  6
Continuous
 62
     8
 48
2.0
370
     0
100
AcDbLine
 10
2.858150243759155
 20
2.366357088088989
 30
0.0
 11
3.003900289535522
 21
2.366357088088989
 31
0.0
  0
LINE
  5
5D
330
58
100
AcDbEntity
  8
CC-60401-0 Strip [REF] [12]
  6
Continuous
 62
     8
 48
2.0
370
     0
100
AcDbLine
 10
2.930896282196045
 20
2.240357160568237
 30
0.0
 11
3.003902912139893
 21
2.240357160568237
 31
0.0
  0
LINE
  5
5E
330
58
100
AcDbEntity
  8
CC-60401-0 Strip [REF] [12]
  6
Continuous
 62
     8
 48
2.0
370
     0
100
AcDbLine
 10
2.967269420623779
 20
2.177357196807861
 30
0.0
 11
3.00390887260437
 21
2.177357196807861
 31
0.0
  0
LINE
  5
5F
330
58
100
AcDbEntity
  8
CC-60401-0 Strip [REF] [12]
  6
Continuous
 62
     8
 48
2.0
370
     0
100
AcDbLine
 10
1.614816308021545
 20
1.925357103347778
 30
0.0
 11
1.747301578521729
 21
1.925357103347778
 31
0.0
  0
LINE
  5
60
330
58
100
AcDbEntity
  8
CC-60401-0 Strip [REF] [12]
  6
Continuous
 62
     8
 48
2.0
370
     0
100
AcDbLine
 10
1.586240172386169
 20
1.862357139587402
 30
0.0
 11
1.783674597740173
 21
1.862357139587402
 31
0.0
  0
LINE
  5
61
330
58
100
AcDbEntity
  8
CC-60401-0 Strip [REF] [12]
  6
Continuous
 62
     8
 48
2.0
370
     0
100
AcDbLine
 10
1.658986330032349
 20
1.736357092857361
 30
0.0
 11
1.856420755386353
 21
1.736357092857361
 31
0.0
  0
LINE
  5
62
330
58
100
AcDbEntity
  8
CC-60401-0 Strip [REF] [12]
  6
Continuous
 62
     8
 48
2.0
370
     0
100
AcDbLine
 10
1.718770027160645
 20
1.673357129096985
 30
0.0
 11
1.892793774604797
 21
1.673357129096985
 31
0.0
  0
LINE
  5
63
330
58
100
AcDbEntity
  8
CC-60401-0 Strip [REF] [12]
  6
Continuous
 62
     8
 48
2.0
370
     0
100
AcDbLine
 10
1.827890515327454
 20
1.610357165336609
 30
0.0
 11
1.929166913032532
 21
1.610357165336609
 31
0.0
  0
LINE
  5
64
330
58
100
AcDbEntity
  8
CC-60401-0 Strip [REF] [12]
  6
Continuous
 62
     8
 48
2.0
370
     0
100
AcDbLine
 10
1.936988830566406
 20
1.547357201576233
 30
0.0
 11
1.965539932250977
 21
1.547357201576233
 31
0.0
  0
ENDBLK
  5
67
330
58
100
AcDbEntity
  8
0
100
AcDbBlockEnd
  0
BLOCK
  5
B9
330
68
100
AcDbEntity
  8
0
100
AcDbBlockBegin
  2
CK_HATCH_0003
 70
     0
 71
     0
 10
0.0
 20
0.0
 30
0.0
  3
CK_HATCH_0003
  1

  0
LINE
  5
69
330
68
100
AcDbEntity
  8
CC-60401-0 Strip [REF] [12]
  6
Continuous
 62
     8
 48
2.0
370
     0
100
AcDbLine
 10
3.267301797866821
 20
4.939132690429688
 30
0.0
 11
3.501466512680054
 21
4.939132690429688
 31
0.0
  0
LINE
  5
6A
330
68
100
AcDbEntity
  8
CC-60401-0 Strip [REF] [12]
  6
Continuous
 62
     8
 48
2.0
370
     0
100
AcDbLine
 10
3.230928659439087
 20
4.876132965087891
 30
0.0
 11
3.610585689544678
 21
4.876132965087891
 31
0.0
  0
LINE
  5
6B
330
68
100
AcDbEntity
  8
CC-60401-0 Strip [REF] [12]
  6
Continuous
 62
     8
 48
2.0
370
     0
100
AcDbLine
 10
3.218270540237427
 20
4.813132762908936
 30
0.0
 11
3.719704866409302
 21
4.813132762908936
 31
0.0
  0
LINE
  5
6C
330
68
100
AcDbEntity
  8
CC-60401-0 Strip [REF] [12]
  6
Continuous
 62
     8
 48
2.0
370
     0
100
AcDbLine
 10
3.419912576675415
 20
4.687132835388184
 30
0.0
 11
3.93794322013855
 21
4.687132835388184
 31
0.0
  0
LINE
  5
6D
330
68
100
AcDbEntity
  8
CC-60401-0 Strip [REF] [12]
  6
Continuous
 62
     8
 48
2.0
370
     0
100
AcDbLine
 10
3.520733594894409
 20
4.624132633209229
 30
0.0
 11
4.047062397003174
 21
4.624132633209229
 31
0.0
  0
LINE
  5
6E
330
68
100
AcDbEntity
  8
CC-60401-0 Strip [REF] [12]
  6
Continuous
 62
     8
 48
2.0
370
     0
100
AcDbLine
 10
3.621554851531982
 20
4.561132907867432
 30
0.0
 11
4.156181812286377
 21
4.561132907867432
 31
0.0
  0
LINE
  5
6F
330
68
100
AcDbEntity
  8
CC-60401-0 Strip [REF] [12]
  6
Continuous
 62
     8
 48
2.0
370
     0
100
AcDbLine
 10
3.821713209152222
 20
4.43513298034668
 30
0.0
 11
4.374420166015625
 21
4.43513298034668
 31
0.0
  0
LINE
  5
70
330
68
100
AcDbEntity
  8
CC-60401-0 Strip [REF] [12]
  6
Continuous
 62
     8
 48
2.0
370
     0
100
AcDbLine
 10
4.449625015258789
 20
4.43513298034668
 30
0.0
 11
4.71642017364502
 21
4.43513298034668
 31
0.0
  0
LINE
  5
71
330
68
100
AcDbEntity
  8
CC-60401-0 Strip [REF] [12]
  6
Continuous
 62
     8
 48
2.0
370
     0
100
AcDbLine
 10
3.885310888290405
 20
4.372132778167725
 30
0.0
 11
4.44684362411499
 21
4.372132778167725
 31
0.0
  0
LINE
  5
72
330
68
100
AcDbEntity
  8
CC-60401-0 Strip [REF] [12]
  6
Continuous
 62
     8
 48
2.0
370
     0
100
AcDbLine
 10
4.508373260498047
 20
4.372132778167725
 30
0.0
 11
4.764708518981934
 21
4.372132778167725
 31
0.0
  0
LINE
  5
73
330
68
100
AcDbEntity
  8
CC-60401-0 Strip [REF] [12]
  6
Continuous
 62
     8
 48
2.0
370
     0
100
AcDbLine
 10
3.92130970954895
 20
4.30913257598877
 30
0.0
 11
4.505591869354248
 21
4.30913257598877
 31
0.0
  0
LINE
  5
74
330
68
100
AcDbEntity
  8
CC-60401-0 Strip [REF] [12]
  6
Continuous
 62
     8
 48
2.0
370
     0
100
AcDbLine
 10
4.567121505737305
 20
4.30913257598877
 30
0.0
 11
4.744163990020752
 21
4.30913257598877
 31
0.0
  0
LINE
  5
75
330
68
100
AcDbEntity
  8
CC-60401-0 Strip [REF] [12]
  6
Continuous
 62
     8
 48
2.0
370
     0
100
AcDbLine
 10
3.944588422775269
 20
4.183132648468018
 30
0.0
 11
4.671417713165283
 21
4.183132648468018
 31
0.0
  0
LINE
  5
76
330
68
100
AcDbEntity
  8
CC-60401-0 Strip [REF] [12]
  6
Continuous
 62
     8
 48
2.0
370
     0
100
AcDbLine
 10
3.935791254043579
 20
4.120132923126221
 30
0.0
 11
4.635044574737549
 21
4.120132923126221
 31
0.0
  0
LINE
  5
77
330
68
100
AcDbEntity
  8
CC-60401-0 Strip [REF] [12]
  6
Continuous
 62
     8
 48
2.0
370
     0
100
AcDbLine
 10
3.912274122238159
 20
4.057132720947266
 30
0.0
 11
4.598671436309814
 21
4.057132720947266
 31
0.0
  0
LINE
  5
78
330
68
100
AcDbEntity
  8
CC-60401-0 Strip [REF] [12]
  6
Continuous
 62
     8
 48
2.0
370
     0
100
AcDbLine
 10
3.840033292770386
 20
3.931132793426514
 30
0.0
 11
4.525925159454346
 21
3.931132793426514
 31
0.0
  0
LINE
  5
79
330
68
100
AcDbEntity
  8
CC-60401-0 Strip [REF] [12]
  6
Continuous
 62
     8
 48
2.0
370
     0
100
AcDbLine
 10
3.803660154342651
 20
3.868132829666138
 30
0.0
 11
4.48955249786377
 21
3.868132829666138
 31
0.0
  0
LINE
  5
7A
330
68
100
AcDbEntity
  8
CC-60401-0 Strip [REF] [12]
  6
Continuous
 62
     8
 48
2.0
370
     0
100
AcDbLine
 10
3.767287015914917
 20
3.805132865905762
 30
0.0
 11
4.453179359436035
 21
3.805132865905762
 31
0.0
  0
LINE
  5
7B
330
68
100
AcDbEntity
  8
CC-60401-0 Strip [REF] [12]
  6
Continuous
 62
     8
 48
2.0
370
     0
100
AcDbLine
 10
3.694540977478027
 20
3.679132699966431
 30
0.0
 11
4.380433082580566
 21
3.679132699966431
 31
0.0
  0
LINE
  5
7C
330
68
100
AcDbEntity
  8
CC-60401-0 Strip [REF] [12]
  6
Continuous
 62
     8
 48
2.0
370
     0
100
AcDbLine
 10
3.658167839050293
 20
3.616132736206055
 30
0.0
 11
4.344059944152832
 21
3.616132736206055
 31
0.0
  0
LINE
  5
7D
330
68
100
AcDbEntity
  8
CC-60401-0 Strip [REF] [12]
  6
Continuous
 62
     8
 48
2.0
370
     0
100
AcDbLine
 10
2.467094421386719
 20
3.553132772445679
 30
0.0
 11
2.525629281997681
 21
3.553132772445679
 31
0.0
  0
LINE
  5
7E
330
68
100
AcDbEntity
  8
CC-60401-0 Strip [REF] [12]
  6
Continuous
 62
     8
 48
2.0
370
     0
100
AcDbLine
 10
3.621794939041138
 20
3.553132772445679
 30
0.0
 11
4.307686805725098
 21
3.553132772445679
 31
0.0
  0
LINE
  5
7F
330
68
100
AcDbEntity
  8
CC-60401-0 Strip [REF] [12]
  6
Continuous
 62
     8
 48
2.0
370
     0
100
AcDbLine
 10
2.39434814453125
 20
3.427132844924927
 30
0.0
 11
2.762600898742676
 21
3.427132844924927
 31
0.0
  0
LINE
  5
80
330
68
100
AcDbEntity
  8
CC-60401-0 Strip [REF] [12]
  6
Continuous
 62
     8
 48
2.0
370
     0
100
AcDbLine
 10
3.549048662185669
 20
3.427132844924927
 30
0.0
 11
4.234941005706787
 21
3.427132844924927
 31
0.0
  0
LINE
  5
81
330
68
100
AcDbEntity
  8
CC-60401-0 Strip [REF] [12]
  6
Continuous
 62
     8
 48
2.0
370
     0
100
AcDbLine
 10
2.370592594146729
 20
3.364132881164551
 30
0.0
 11
2.881086587905884
 21
3.364132881164551
 31
0.0
  0
LINE
  5
82
330
68
100
AcDbEntity
  8
CC-60401-0 Strip [REF] [12]
  6
Continuous
 62
     8
 48
2.0
370
     0
100
AcDbLine
 10
3.512675762176514
 20
3.364132881164551
 30
0.0
 11
4.198567867279053
 21
3.364132881164551
 31
0.0
  0
LINE
  5
83
330
68
100
AcDbEntity
  8
CC-60401-0 Strip [REF] [12]
  6
Continuous
 62
     8
 48
2.0
370
     0
100
AcDbLine
 10
2.441565752029419
 20
3.301132678985596
 30
0.0
 11
2.999572515487671
 21
3.301132678985596
 31
0.0
  0
LINE
  5
84
330
68
100
AcDbEntity
  8
CC-60401-0 Strip [REF] [12]
  6
Continuous
 62
     8
 48
2.0
370
     0
100
AcDbLine
 10
3.466565847396851
 20
3.301132678985596
 30
0.0
 11
4.162194728851318
 21
3.301132678985596
 31
0.0
  0
LINE
  5
85
330
68
100
AcDbEntity
  8
CC-60401-0 Strip [REF] [12]
  6
Continuous
 62
     8
 48
2.0
370
     0
100
AcDbLine
 10
2.659804105758667
 20
3.175132751464844
 30
0.0
 11
4.08944845199585
 21
3.175132751464844
 31
0.0
  0
LINE
  5
86
330
68
100
AcDbEntity
  8
CC-60401-0 Strip [REF] [12]
  6
Continuous
 62
     8
 48
2.0
370
     0
100
AcDbLine
 10
2.768923282623291
 20
3.112132787704468
 30
0.0
 11
4.053075313568115
 21
3.112132787704468
 31
0.0
  0
LINE
  5
87
330
68
100
AcDbEntity
  8
CC-60401-0 Strip [REF] [12]
  6
Continuous
 62
     8
 48
2.0
370
     0
100
AcDbLine
 10
2.79041051864624
 20
3.049132823944092
 30
0.0
 11
4.016702651977539
 21
3.049132823944092
 31
0.0
  0
LINE
  5
88
330
68
100
AcDbEntity
  8
CC-60401-0 Strip [REF] [12]
  6
Continuous
 62
     8
 48
2.0
370
     0
100
AcDbLine
 10
2.717664241790771
 20
2.923132658004761
 30
0.0
 11
3.94395637512207
 21
2.923132658004761
 31
0.0
  0
LINE
  5
89
330
68
100
AcDbEntity
  8
CC-60401-0 Strip [REF] [12]
  6
Continuous
 62
     8
 48
2.0
370
     0
100
AcDbLine
 10
2.681291341781616
 20
2.860132694244385
 30
0.0
 11
3.907583236694336
 21
2.860132694244385
 31
0.0
  0
LINE
  5
8A
330
68
100
AcDbEntity
  8
CC-60401-0 Strip [REF] [12]
  6
Continuous
 62
     8
 48
2.0
370
     0
100
AcDbLine
 10
2.644918203353882
 20
2.797132730484009
 30
0.0
 11
3.871210098266602
 21
2.797132730484009
 31
0.0
  0
LINE
  5
8B
330
68
100
AcDbEntity
  8
CC-60401-0 Strip [REF] [12]
  6
Continuous
 62
     8
 48
2.0
370
     0
100
AcDbLine
 10
2.760757684707642
 20
2.671132802963257
 30
0.0
 11
3.148455381393433
 21
2.671132802963257
 31
0.0
  0
LINE
  5
8C
330
68
100
AcDbEntity
  8
CC-60401-0 Strip [REF] [12]
  6
Continuous
 62
     8
 48
2.0
370
     0
100
AcDbLine
 10
3.194757699966431
 20
2.671132802963257
 30
0.0
 11
3.798464059829712
 21
2.671132802963257
 31
0.0
  0
LINE
  5
8D
330
68
100
AcDbEntity
  8
CC-60401-0 Strip [REF] [12]
  6
Continuous
 62
     8
 48
2.0
370
     0
100
AcDbLine
 10
3.303876876831055
 20
2.608132839202881
 30
0.0
 11
3.762090921401978
 21
2.608132839202881
 31
0.0
  0
LINE
  5
8E
330
68
100
AcDbEntity
  8
CC-60401-0 Strip [REF] [12]
  6
Continuous
 62
     8
 48
2.0
370
     0
100
AcDbLine
 10
3.412996053695679
 20
2.545132875442505
 30
0.0
 11
3.725717782974243
 21
2.545132875442505
 31
0.0
  0
LINE
  5
8F
330
68
100
AcDbEntity
  8
CC-60401-0 Strip [REF] [12]
  6
Continuous
 62
     8
 48
2.0
370
     0
100
AcDbLine
 10
3.631234407424927
 20
2.419132709503174
 30
0.0
 11
3.652971744537354
 21
2.419132709503174
 31
0.0
  0
LINE
  5
90
330
68
100
AcDbEntity
  8
CC-60401-0 Strip [REF] [12]
  6
Continuous
 62
     8
 48
2.0
370
     0
100
AcDbLine
 10
1.953829884529114
 20
1.600132822990417
 30
0.0
 11
2.109784126281738
 21
1.600132822990417
 31
0.0
  0
LINE
  5
91
330
68
100
AcDbEntity
  8
CC-60401-0 Strip [REF] [12]
  6
Continuous
 62
     8
 48
2.0
370
     0
100
AcDbLine
 10
1.303156137466431
 20
1.537132740020752
 30
0.0
 11
1.446903347969055
 21
1.537132740020752
 31
0.0
  0
LINE
  5
92
330
68
100
AcDbEntity
  8
CC-60401-0 Strip [REF] [12]
  6
Continuous
 62
     8
 48
2.0
370
     0
100
AcDbLine
 10
1.917456865310669
 20
1.537132740020752
 30
0.0
 11
2.194042444229126
 21
1.537132740020752
 31
0.0
  0
LINE
  5
93
330
68
100
AcDbEntity
  8
CC-60401-0 Strip [REF] [12]
  6
Continuous
 62
     8
 48
2.0
370
     0
100
AcDbLine
 10
1.230409979820251
 20
1.4111328125
 30
0.0
 11
1.665141701698303
 21
1.4111328125
 31
0.0
  0
LINE
  5
94
330
68
100
AcDbEntity
  8
CC-60401-0 Strip [REF] [12]
  6
Continuous
 62
     8
 48
2.0
370
     0
100
AcDbLine
 10
1.84471070766449
 20
1.4111328125
 30
0.0
 11
2.266788482666016
 21
1.4111328125
 31
0.0
  0
LINE
  5
95
330
68
100
AcDbEntity
  8
CC-60401-0 Strip [REF] [12]
  6
Continuous
 62
     8
 48
2.0
370
     0
100
AcDbLine
 10
1.253654956817627
 20
1.348132729530334
 30
0.0
 11
1.774269104003906
 21
1.348132729530334
 31
0.0
  0
LINE
  5
96
330
68
100
AcDbEntity
  8
CC-60401-0 Strip [REF] [12]
  6
Continuous
 62
     8
 48
2.0
370
     0
100
AcDbLine
 10
1.803406357765198
 20
1.348132729530334
 30
0.0
 11
2.30316162109375
 21
1.348132729530334
 31
0.0
  0
LINE
  5
97
330
68
100
AcDbEntity
  8
CC-60401-0 Strip [REF] [12]
  6
Continuous
 62
     8
 48
2.0
370
     0
100
AcDbLine
 10
1.354475975036621
 20
1.285132765769958
 30
0.0
 11
2.339534759521484
 21
1.285132765769958
 31
0.0
  0
LINE
  5
98
330
68
100
AcDbEntity
  8
CC-60401-0 Strip [REF] [12]
  6
Continuous
 62
     8
 48
2.0
370
     0
100
AcDbLine
 10
1.556118130683899
 20
1.159132719039917
 30
0.0
 11
2.439618587493896
 21
1.159132719039917
 31
0.0
  0
LINE
  5
99
330
68
100
AcDbEntity
  8
CC-60401-0 Strip [REF] [12]
  6
Continuous
 62
     8
 48
2.0
370
     0
100
AcDbLine
 10
1.656939268112183
 20
1.096132755279541
 30
0.0
 11
2.548737764358521
 21
1.096132755279541
 31
0.0
  0
LINE
  5
9A
330
68
100
AcDbEntity
  8
CC-60401-0 Strip [REF] [12]
  6
Continuous
 62
     8
 48
2.0
370
     0
100
AcDbLine
 10
1.757760286331177
 20
1.033132791519165
 30
0.0
 11
2.657856941223145
 21
1.033132791519165
 31
0.0
  0
LINE
  5
9B
330
68
100
AcDbEntity
  8
CC-60401-0 Strip [REF] [12]
  6
Continuous
 62
     8
 48
2.0
370
     0
100
AcDbLine
 10
1.905758023262024
 20
0.9071327447891235
 30
0.0
 11
2.780018091201782
 21
0.9071327447891235
 31
0.0
  0
LINE
  5
9C
330
68
100
AcDbEntity
  8
CC-60401-0 Strip [REF] [12]
  6
Continuous
 62
     8
 48
2.0
370
     0
100
AcDbLine
 10
1.936674952507019
 20
0.8441327810287476
 30
0.0
 11
2.743645191192627
 21
0.8441327810287476
 31
0.0
  0
LINE
  5
9D
330
68
100
AcDbEntity
  8
CC-60401-0 Strip [REF] [12]
  6
Continuous
 62
     8
 48
2.0
370
     0
100
AcDbLine
 10
1.951486468315125
 20
0.7811327576637268
 30
0.0
 11
2.707272052764893
 21
0.7811327576637268
 31
0.0
  0
LINE
  5
9E
330
68
100
AcDbEntity
  8
CC-60401-0 Strip [REF] [12]
  6
Continuous
 62
     8
 48
2.0
370
     0
100
AcDbLine
 10
1.940166354179382
 20
0.6551327705383301
 30
0.0
 11
2.634525775909424
 21
0.6551327705383301
 31
0.0
  0
LINE
  5
9F
330
68
100
AcDbEntity
  8
CC-60401-0 Strip [REF] [12]
  6
Continuous
 62
     8
 48
2.0
370
     0
100
AcDbLine
 10
1.91226065158844
 20
0.5921327471733093
 30
0.0
 11
2.598152875900269
 21
0.5921327471733093
 31
0.0
  0
LINE
  5
A0
330
68
100
AcDbEntity
  8
CC-60401-0 Strip [REF] [12]
  6
Continuous
 62
     8
 48
2.0
370
     0
100
AcDbLine
 10
1.875887632369995
 20
0.5291327834129333
 30
0.0
 11
2.561779737472534
 21
0.5291327834129333
 31
0.0
  0
LINE
  5
A1
330
68
100
AcDbEntity
  8
CC-60401-0 Strip [REF] [12]
  6
Continuous
 62
     8
 48
2.0
370
     0
100
AcDbLine
 10
1.803141474723816
 20
0.4031327664852142
 30
0.0
 11
2.489033699035645
 21
0.4031327664852142
 31
0.0
  0
LINE
  5
A2
330
68
100
AcDbEntity
  8
CC-60401-0 Strip [REF] [12]
  6
Continuous
 62
     8
 48
2.0
370
     0
100
AcDbLine
 10
1.766768455505371
 20
0.3401327729225159
 30
0.0
 11
2.45266056060791
 21
0.3401327729225159
 31
0.0
  0
LINE
  5
A3
330
68
100
AcDbEntity
  8
CC-60401-0 Strip [REF] [12]
  6
Continuous
 62
     8
 48
2.0
370
     0
100
AcDbLine
 10
1.730395317077637
 20
0.2771327793598175
 30
0.0
 11
2.416287422180176
 21
0.2771327793598175
 31
0.0
  0
LINE
  5
A4
330
68
100
AcDbEntity
  8
CC-60401-0 Strip [REF] [12]
  6
Continuous
 62
     8
 48
2.0
370
     0
100
AcDbLine
 10
1.657649278640747
 20
0.1511327773332596
 30
0.0
 11
2.343541383743286
 21
0.1511327773332596
 31
0.0
  0
LINE
  5
A5
330
68
100
AcDbEntity
  8
CC-60401-0 Strip [REF] [12]
  6
Continuous
 62
     8
 48
2.0
370
     0
100
AcDbLine
 10
0.4665756225585938
 20
0.0881327688694
 30
0.0
 11
0.5656365752220154
 21
0.0881327688694
 31
0.0
  0
LINE
  5
A6
330
68
100
AcDbEntity
  8
CC-60401-0 Strip [REF] [12]
  6
Continuous
 62
     8
 48
2.0
370
     0
100
AcDbLine
 10
1.621276140213013
 20
0.0881327688694
 30
0.0
 11
2.307168245315552
 21
0.0881327688694
 31
0.0
  0
LINE
  5
A7
330
68
100
AcDbEntity
  8
CC-60401-0 Strip [REF] [12]
  6
Continuous
 62
     8
 48
2.0
370
     0
100
AcDbLine
 10
0.4302025437355042
 20
0.0251327715814114
 30
0.0
 11
0.6841223239898682
 21
0.0251327715814114
 31
0.0
  0
LINE
  5
A8
330
68
100
AcDbEntity
  8
CC-60401-0 Strip [REF] [12]
  6
Continuous
 62
     8
 48
2.0
370
     0
100
AcDbLine
 10
1.584903120994568
 20
0.0251327715814114
 30
0.0
 11
2.270795106887817
 21
0.0251327715814114
 31
0.0
  0
LINE
  5
A9
330
68
100
AcDbEntity
  8
CC-60401-0 Strip [REF] [12]
  6
Continuous
 62
     8
 48
2.0
370
     0
100
AcDbLine
 10
0.3895261883735657
 20
-0.1008672267198563
 30
0.0
 11
0.9210938811302185
 21
-0.1008672267198563
 31
0.0
  0
LINE
  5
AA
330
68
100
AcDbEntity
  8
CC-60401-0 Strip [REF] [12]
  6
Continuous
 62
     8
 48
2.0
370
     0
100
AcDbLine
 10
1.511870741844177
 20
-0.1008672267198563
 30
0.0
 11
2.198049068450928
 21
-0.1008672267198563
 31
0.0
  0
LINE
  5
AB
330
68
100
AcDbEntity
  8
CC-60401-0 Strip [REF] [12]
  6
Continuous
 62
     8
 48
2.0
370
     0
100
AcDbLine
 10
0.4961217045783997
 20
-0.1638672351837158
 30
0.0
 11
1.039579629898071
 21
-0.1638672351837158
 31
0.0
  0
LINE
  5
AC
330
68
100
AcDbEntity
  8
CC-60401-0 Strip [REF] [12]
  6
Continuous
 62
     8
 48
2.0
370
     0
100
AcDbLine
 10
1.458565473556519
 20
-0.1638672351837158
 30
0.0
 11
2.161675930023193
 21
-0.1638672351837158
 31
0.0
  0
LINE
  5
AD
330
68
100
AcDbEntity
  8
CC-60401-0 Strip [REF] [12]
  6
Continuous
 62
     8
 48
2.0
370
     0
100
AcDbLine
 10
0.6052409410476685
 20
-0.2268672287464142
 30
0.0
 11
1.169186115264893
 21
-0.2268672287464142
 31
0.0
  0
LINE
  5
AE
330
68
100
AcDbEntity
  8
CC-60401-0 Strip [REF] [12]
  6
Continuous
 62
     8
 48
2.0
370
     0
100
AcDbLine
 10
1.347562789916992
 20
-0.2268672287464142
 30
0.0
 11
2.125303030014038
 21
-0.2268672287464142
 31
0.0
  0
LINE
  5
AF
330
68
100
AcDbEntity
  8
CC-60401-0 Strip [REF] [12]
  6
Continuous
 62
     8
 48
2.0
370
     0
100
AcDbLine
 10
0.8234792947769165
 20
-0.3528672158718109
 30
0.0
 11
2.052556753158569
 21
-0.3528672158718109
 31
0.0
  0
LINE
  5
B0
330
68
100
AcDbEntity
  8
CC-60401-0 Strip [REF] [12]
  6
Continuous
 62
     8
 48
2.0
370
     0
100
AcDbLine
 10
0.9325985312461853
 20
-0.4158672392368317
 30
0.0
 11
2.016183853149414
 21
-0.4158672392368317
 31
0.0
  0
LINE
  5
B1
330
68
100
AcDbEntity
  8
CC-60401-0 Strip [REF] [12]
  6
Continuous
 62
     8
 48
2.0
370
     0
100
AcDbLine
 10
1.041717767715454
 20
-0.47886723279953
 30
0.0
 11
1.97981071472168
 21
-0.47886723279953
 31
0.0
  0
LINE
  5
B2
330
68
100
AcDbEntity
  8
CC-60401-0 Strip [REF] [12]
  6
Continuous
 62
     8
 48
2.0
370
     0
100
AcDbLine
 10
1.259956121444702
 20
-0.6048672199249268
 30
0.0
 11
1.9070645570755
 21
-0.6048672199249268
 31
0.0
  0
LINE
  5
B3
330
68
100
AcDbEntity
  8
CC-60401-0 Strip [REF] [12]
  6
Continuous
 62
     8
 48
2.0
370
     0
100
AcDbLine
 10
1.369075298309326
 20
-0.6678672432899475
 30
0.0
 11
1.870691537857056
 21
-0.6678672432899475
 31
0.0
  0
LINE
  5
B4
330
68
100
AcDbEntity
  8
CC-60401-0 Strip [REF] [12]
  6
Continuous
 62
     8
 48
2.0
370
     0
100
AcDbLine
 10
1.530946850776672
 20
-0.7308672070503235
 30
0.0
 11
1.834318399429321
 21
-0.7308672070503235
 31
0.0
  0
LINE
  5
B5
330
68
100
AcDbEntity
  8
CC-60401-0 Strip [REF] [12]
  6
Continuous
 62
     8
 48
2.0
370
     0
100
AcDbLine
 10
1.378648519515991
 20
-0.856867253780365
 30
0.0
 11
1.761572241783142
 21
-0.856867253780365
 31
0.0
  0
LINE
  5
B6
330
68
100
AcDbEntity
  8
CC-60401-0 Strip [REF] [12]
  6
Continuous
 62
     8
 48
2.0
370
     0
100
AcDbLine
 10
1.463552117347717
 20
-0.919867217540741
 30
0.0
 11
1.725199222564697
 21
-0.919867217540741
 31
0.0
  0
LINE
  5
B7
330
68
100
AcDbEntity
  8
CC-60401-0 Strip [REF] [12]
  6
Continuous
 62
     8
 48
2.0
370
     0
100
AcDbLine
 10
1.572671294212341
 20
-0.9828672409057617
 30
0.0
 11
1.686792135238647
 21
-0.9828672409057617
 31
0.0
  0
ENDBLK
  5
BA
330
68
100
AcDbEntity
  8
0
100
AcDbBlockEnd
  0
BLOCK
  5
105
330
BB
100
AcDbEntity
  8
0
100
AcDbBlockBegin
  2
CK_HATCH_0004
 70
     0
 71
     0
 10
0.0
 20
0.0
 30
0.0
  3
CK_HATCH_0004
  1

  0
LINE
  5
BC
330
BB
100
AcDbEntity
  8
CC-60401-0 Strip [REF] [12]
  6
Continuous
 62
     8
 48
2.0
370
     0
100
AcDbLine
 10
-0.9594935178756714
 20
-0.7856460809707642
 30
0.0
 11
-0.6939310431480408
 21
-0.7856460809707642
 31
0.0
  0
LINE
  5
BD
330
BB
100
AcDbEntity
  8
CC-60401-0 Strip [REF] [12]
  6
Continuous
 62
     8
 48
2.0
370
     0
100
AcDbLine
 10
-1.022493481636047
 20
-0.7226460576057434
 30
0.0
 11
-0.63093101978302
 21
-0.7226460576057434
 31
0.0
  0
LINE
  5
BE
330
BB
100
AcDbEntity
  8
CC-60401-0 Strip [REF] [12]
  6
Continuous
 62
     8
 48
2.0
370
     0
100
AcDbLine
 10
-1.148493528366089
 20
-0.5966460704803467
 30
0.0
 11
-0.7871994972229004
 21
-0.5966460704803467
 31
0.0
  0
LINE
  5
BF
330
BB
100
AcDbEntity
  8
CC-60401-0 Strip [REF] [12]
  6
Continuous
 62
     8
 48
2.0
370
     0
100
AcDbLine
 10
-0.6913470029830933
 20
-0.5966460704803467
 30
0.0
 11
-0.654932975769043
 21
-0.5966460704803467
 31
0.0
  0
LINE
  5
C0
330
BB
100
AcDbEntity
  8
CC-60401-0 Strip [REF] [12]
  6
Continuous
 62
     8
 48
2.0
370
     0
100
AcDbLine
 10
-1.211493492126465
 20
-0.5336460471153259
 30
0.0
 11
-0.6837615370750427
 21
-0.5336460471153259
 31
0.0
  0
LINE
  5
C1
330
BB
100
AcDbEntity
  8
CC-60401-0 Strip [REF] [12]
  6
Continuous
 62
     8
 48
2.0
370
     0
100
AcDbLine
 10
-1.337493538856506
 20
-0.4076460599899292
 30
0.0
 11
-0.557761549949646
 21
-0.4076460599899292
 31
0.0
  0
LINE
  5
C2
330
BB
100
AcDbEntity
  8
CC-60401-0 Strip [REF] [12]
  6
Continuous
 62
     8
 48
2.0
370
     0
100
AcDbLine
 10
-1.400493502616882
 20
-0.3446460664272308
 30
0.0
 11
-0.4947615563869476
 21
-0.3446460664272308
 31
0.0
  0
LINE
  5
C3
330
BB
100
AcDbEntity
  8
CC-60401-0 Strip [REF] [12]
  6
Continuous
 62
     8
 48
2.0
370
     0
100
AcDbLine
 10
-1.526493549346924
 20
-0.2186460793018341
 30
0.0
 11
-0.3687615692615509
 21
-0.2186460793018341
 31
0.0
  0
LINE
  5
C4
330
BB
100
AcDbEntity
  8
CC-60401-0 Strip [REF] [12]
  6
Continuous
 62
     8
 48
2.0
370
     0
100
AcDbLine
 10
-1.5894935131073
 20
-0.1556460708379745
 30
0.0
 11
-0.3057615458965302
 21
-0.1556460708379745
 31
0.0
  0
LINE
  5
C5
330
BB
100
AcDbEntity
  8
CC-60401-0 Strip [REF] [12]
  6
Continuous
 62
     8
 48
2.0
370
     0
100
AcDbLine
 10
-1.715493559837341
 20
-0.0296460725367069
 30
0.0
 11
-0.851296067237854
 21
-0.0296460725367069
 31
0.0
  0
LINE
  5
C6
330
BB
100
AcDbEntity
  8
CC-60401-0 Strip [REF] [12]
  6
Continuous
 62
     8
 48
2.0
370
     0
100
AcDbLine
 10
-0.5922979712486267
 20
-0.0296460725367069
 30
0.0
 11
-0.1797615587711334
 21
-0.0296460725367069
 31
0.0
  0
LINE
  5
C7
330
BB
100
AcDbEntity
  8
CC-60401-0 Strip [REF] [12]
  6
Continuous
 62
     8
 48
2.0
370
     0
100
AcDbLine
 10
-1.778493523597717
 20
0.033353928476572
 30
0.0
 11
-0.9384506940841675
 21
0.033353928476572
 31
0.0
  0
LINE
  5
C8
330
BB
100
AcDbEntity
  8
CC-60401-0 Strip [REF] [12]
  6
Continuous
 62
     8
 48
2.0
370
     0
100
AcDbLine
 10
-0.504548192024231
 20
0.033353928476572
 30
0.0
 11
-0.1167615577578545
 21
0.033353928476572
 31
0.0
  0
LINE
  5
C9
330
BB
100
AcDbEntity
  8
CC-60401-0 Strip [REF] [12]
  6
Continuous
 62
     8
 48
2.0
370
     0
100
AcDbLine
 10
-1.904493570327759
 20
0.1593539267778397
 30
0.0
 11
-1.064450621604919
 21
0.1593539267778397
 31
0.0
  0
LINE
  5
CA
330
BB
100
AcDbEntity
  8
CC-60401-0 Strip [REF] [12]
  6
Continuous
 62
     8
 48
2.0
370
     0
100
AcDbLine
 10
-0.3694297075271606
 20
0.1593539267778397
 30
0.0
 11
0.0092384433373809
 21
0.1593539267778397
 31
0.0
  0
LINE
  5
CB
330
BB
100
AcDbEntity
  8
CC-60401-0 Strip [REF] [12]
  6
Continuous
 62
     8
 48
2.0
370
     0
100
AcDbLine
 10
-1.967493534088135
 20
0.222353920340538
 30
0.0
 11
-1.127450704574585
 21
0.222353920340538
 31
0.0
  0
LINE
  5
CC
330
BB
100
AcDbEntity
  8
CC-60401-0 Strip [REF] [12]
  6
Continuous
 62
     8
 48
2.0
370
     0
100
AcDbLine
 10
-0.3018704652786255
 20
0.222353920340538
 30
0.0
 11
0.0722384452819824
 21
0.222353920340538
 31
0.0
  0
LINE
  5
CD
330
BB
100
AcDbEntity
  8
CC-60401-0 Strip [REF] [12]
  6
Continuous
 62
     8
 48
2.0
370
     0
100
AcDbLine
 10
-2.093493461608887
 20
0.3483539223670959
 30
0.0
 11
-1.253450632095337
 21
0.3483539223670959
 31
0.0
  0
LINE
  5
CE
330
BB
100
AcDbEntity
  8
CC-60401-0 Strip [REF] [12]
  6
Continuous
 62
     8
 48
2.0
370
     0
100
AcDbLine
 10
-0.1667520254850388
 20
0.3483539223670959
 30
0.0
 11
0.1607628911733627
 21
0.3483539223670959
 31
0.0
  0
LINE
  5
CF
330
BB
100
AcDbEntity
  8
CC-60401-0 Strip [REF] [12]
  6
Continuous
 62
     8
 48
2.0
370
     0
100
AcDbLine
 10
-2.156493425369263
 20
0.4113539159297943
 30
0.0
 11
-1.316450715065002
 21
0.4113539159297943
 31
0.0
  0
LINE
  5
D0
330
BB
100
AcDbEntity
  8
CC-60401-0 Strip [REF] [12]
  6
Continuous
 62
     8
 48
2.0
370
     0
100
AcDbLine
 10
-0.0991927906870842
 20
0.4113539159297943
 30
0.0
 11
0.0977628976106644
 21
0.4113539159297943
 31
0.0
  0
LINE
  5
D1
330
BB
100
AcDbEntity
  8
CC-60401-0 Strip [REF] [12]
  6
Continuous
 62
     8
 48
2.0
370
     0
100
AcDbLine
 10
-2.282493591308594
 20
0.5373539328575134
 30
0.0
 11
-1.442450642585754
 21
0.5373539328575134
 31
0.0
  0
LINE
  5
D2
330
BB
100
AcDbEntity
  8
CC-60401-0 Strip [REF] [12]
  6
Continuous
 62
     8
 48
2.0
370
     0
100
AcDbLine
 10
-2.34549355506897
 20
0.6003539562225342
 30
0.0
 11
-1.504766941070557
 21
0.6003539562225342
 31
0.0
  0
LINE
  5
D3
330
BB
100
AcDbEntity
  8
CC-60401-0 Strip [REF] [12]
  6
Continuous
 62
     8
 48
2.0
370
     0
100
AcDbLine
 10
-2.41835880279541
 20
0.7263539433479309
 30
0.0
 11
-1.571731448173523
 21
0.7263539433479309
 31
0.0
  0
LINE
  5
D4
330
BB
100
AcDbEntity
  8
CC-60401-0 Strip [REF] [12]
  6
Continuous
 62
     8
 48
2.0
370
     0
100
AcDbLine
 10
-2.355358839035034
 20
0.7893539071083069
 30
0.0
 11
-1.580745577812195
 21
0.7893539071083069
 31
0.0
  0
LINE
  5
D5
330
BB
100
AcDbEntity
  8
CC-60401-0 Strip [REF] [12]
  6
Continuous
 62
     8
 48
2.0
370
     0
100
AcDbLine
 10
-2.229358673095703
 20
0.9153539538383484
 30
0.0
 11
-1.557918190956116
 21
0.9153539538383484
 31
0.0
  0
LINE
  5
D6
330
BB
100
AcDbEntity
  8
CC-60401-0 Strip [REF] [12]
  6
Continuous
 62
     8
 48
2.0
370
     0
100
AcDbLine
 10
-2.166358709335327
 20
0.9783539175987244
 30
0.0
 11
-1.522242188453674
 21
0.9783539175987244
 31
0.0
  0
LINE
  5
D7
330
BB
100
AcDbEntity
  8
CC-60401-0 Strip [REF] [12]
  6
Continuous
 62
     8
 48
2.0
370
     0
100
AcDbLine
 10
-2.061690092086792
 20
1.104353904724121
 30
0.0
 11
-1.40742039680481
 21
1.104353904724121
 31
0.0
  0
LINE
  5
D8
330
BB
100
AcDbEntity
  8
CC-60401-0 Strip [REF] [12]
  6
Continuous
 62
     8
 48
2.0
370
     0
100
AcDbLine
 10
-2.077312231063843
 20
1.167353868484497
 30
0.0
 11
-1.348671913146973
 21
1.167353868484497
 31
0.0
  0
LINE
  5
D9
330
BB
100
AcDbEntity
  8
CC-60401-0 Strip [REF] [12]
  6
Continuous
 62
     8
 48
2.0
370
     0
100
AcDbLine
 10
-2.043550491333008
 20
1.293353915214539
 30
0.0
 11
-1.231175065040588
 21
1.293353915214539
 31
0.0
  0
LINE
  5
DA
330
BB
100
AcDbEntity
  8
CC-60401-0 Strip [REF] [12]
  6
Continuous
 62
     8
 48
2.0
370
     0
100
AcDbLine
 10
-2.02666974067688
 20
1.356353878974915
 30
0.0
 11
-1.59959876537323
 21
1.356353878974915
 31
0.0
  0
LINE
  5
DB
330
BB
100
AcDbEntity
  8
CC-60401-0 Strip [REF] [12]
  6
Continuous
 62
     8
 48
2.0
370
     0
100
AcDbLine
 10
-1.549356698989868
 20
1.356353878974915
 30
0.0
 11
-1.172426581382751
 21
1.356353878974915
 31
0.0
  0
LINE
  5
DC
330
BB
100
AcDbEntity
  8
CC-60401-0 Strip [REF] [12]
  6
Continuous
 62
     8
 48
2.0
370
     0
100
AcDbLine
 10
-1.969243168830872
 20
1.482353925704956
 30
0.0
 11
-1.725598692893982
 21
1.482353925704956
 31
0.0
  0
LINE
  5
DD
330
BB
100
AcDbEntity
  8
CC-60401-0 Strip [REF] [12]
  6
Continuous
 62
     8
 48
2.0
370
     0
100
AcDbLine
 10
-1.423356652259827
 20
1.482353925704956
 30
0.0
 11
-1.054929733276367
 21
1.482353925704956
 31
0.0
  0
LINE
  5
DE
330
BB
100
AcDbEntity
  8
CC-60401-0 Strip [REF] [12]
  6
Continuous
 62
     8
 48
2.0
370
     0
100
AcDbLine
 10
-1.906243085861206
 20
1.545353889465332
 30
0.0
 11
-1.788598775863647
 21
1.545353889465332
 31
0.0
  0
LINE
  5
DF
330
BB
100
AcDbEntity
  8
CC-60401-0 Strip [REF] [12]
  6
Continuous
 62
     8
 48
2.0
370
     0
100
AcDbLine
 10
-1.360356688499451
 20
1.545353889465332
 30
0.0
 11
-1.036237120628357
 21
1.545353889465332
 31
0.0
  0
LINE
  5
E0
330
BB
100
AcDbEntity
  8
CC-60401-0 Strip [REF] [12]
  6
Continuous
 62
     8
 48
2.0
370
     0
100
AcDbLine
 10
-1.234356641769409
 20
1.671353936195374
 30
0.0
 11
-1.162237048149109
 21
1.671353936195374
 31
0.0
  0
LINE
  5
E1
330
BB
100
AcDbEntity
  8
CC-60401-0 Strip [REF] [12]
  6
Continuous
 62
     8
 48
2.0
370
     0
100
AcDbLine
 10
-3.668493509292603
 20
1.923353910446167
 30
0.0
 11
-3.607136964797974
 21
1.923353910446167
 31
0.0
  0
LINE
  5
E2
330
BB
100
AcDbEntity
  8
CC-60401-0 Strip [REF] [12]
  6
Continuous
 62
     8
 48
2.0
370
     0
100
AcDbLine
 10
-3.794493436813354
 20
2.049353837966919
 30
0.0
 11
-3.481137037277222
 21
2.049353837966919
 31
0.0
  0
LINE
  5
E3
330
BB
100
AcDbEntity
  8
CC-60401-0 Strip [REF] [12]
  6
Continuous
 62
     8
 48
2.0
370
     0
100
AcDbLine
 10
-3.85749363899231
 20
2.112354040145874
 30
0.0
 11
-3.418137073516846
 21
2.112354040145874
 31
0.0
  0
LINE
  5
E4
330
BB
100
AcDbEntity
  8
CC-60401-0 Strip [REF] [12]
  6
Continuous
 62
     8
 48
2.0
370
     0
100
AcDbLine
 10
-3.983493566513062
 20
2.238353967666626
 30
0.0
 11
-3.292137145996094
 21
2.238353967666626
 31
0.0
  0
LINE
  5
E5
330
BB
100
AcDbEntity
  8
CC-60401-0 Strip [REF] [12]
  6
Continuous
 62
     8
 48
2.0
370
     0
100
AcDbLine
 10
-4.046493530273438
 20
2.301353931427002
 30
0.0
 11
-3.016993999481201
 21
2.301353931427002
 31
0.0
  0
LINE
  5
E6
330
BB
100
AcDbEntity
  8
CC-60401-0 Strip [REF] [12]
  6
Continuous
 62
     8
 48
2.0
370
     0
100
AcDbLine
 10
-4.172493457794189
 20
2.427353858947754
 30
0.0
 11
-2.796252727508545
 21
2.427353858947754
 31
0.0
  0
LINE
  5
E7
330
BB
100
AcDbEntity
  8
CC-60401-0 Strip [REF] [12]
  6
Continuous
 62
     8
 48
2.0
370
     0
100
AcDbLine
 10
-4.235493659973145
 20
2.49035382270813
 30
0.0
 11
-2.754638910293579
 21
2.49035382270813
 31
0.0
  0
LINE
  5
E8
330
BB
100
AcDbEntity
  8
CC-60401-0 Strip [REF] [12]
  6
Continuous
 62
     8
 48
2.0
370
     0
100
AcDbLine
 10
-4.361493587493896
 20
2.616353988647461
 30
0.0
 11
-2.859598636627197
 21
2.616353988647461
 31
0.0
  0
LINE
  5
E9
330
BB
100
AcDbEntity
  8
CC-60401-0 Strip [REF] [12]
  6
Continuous
 62
     8
 48
2.0
370
     0
100
AcDbLine
 10
-4.424493312835693
 20
2.679353952407837
 30
0.0
 11
-2.922598600387573
 21
2.679353952407837
 31
0.0
  0
LINE
  5
EA
330
BB
100
AcDbEntity
  8
CC-60401-0 Strip [REF] [12]
  6
Continuous
 62
     8
 48
2.0
370
     0
100
AcDbLine
 10
-4.550493717193604
 20
2.805353879928589
 30
0.0
 11
-3.701335906982422
 21
2.805353879928589
 31
0.0
  0
LINE
  5
EB
330
BB
100
AcDbEntity
  8
CC-60401-0 Strip [REF] [12]
  6
Continuous
 62
     8
 48
2.0
370
     0
100
AcDbLine
 10
-3.373656511306763
 20
2.805353879928589
 30
0.0
 11
-2.964139223098755
 21
2.805353879928589
 31
0.0
  0
LINE
  5
EC
330
BB
100
AcDbEntity
  8
CC-60401-0 Strip [REF] [12]
  6
Continuous
 62
     8
 48
2.0
370
     0
100
AcDbLine
 10
-4.6134934425354
 20
2.868353843688965
 30
0.0
 11
-3.773450613021851
 21
2.868353843688965
 31
0.0
  0
LINE
  5
ED
330
BB
100
AcDbEntity
  8
CC-60401-0 Strip [REF] [12]
  6
Continuous
 62
     8
 48
2.0
370
     0
100
AcDbLine
 10
-3.29954981803894
 20
2.868353843688965
 30
0.0
 11
-2.901139259338379
 21
2.868353843688965
 31
0.0
  0
LINE
  5
EE
330
BB
100
AcDbEntity
  8
CC-60401-0 Strip [REF] [12]
  6
Continuous
 62
     8
 48
2.0
370
     0
100
AcDbLine
 10
-4.739493370056152
 20
2.994354009628296
 30
0.0
 11
-3.899450778961182
 21
2.994354009628296
 31
0.0
  0
LINE
  5
EF
330
BB
100
AcDbEntity
  8
CC-60401-0 Strip [REF] [12]
  6
Continuous
 62
     8
 48
2.0
370
     0
100
AcDbLine
 10
-3.16443133354187
 20
2.994354009628296
 30
0.0
 11
-2.775139093399048
 21
2.994354009628296
 31
0.0
  0
LINE
  5
F0
330
BB
100
AcDbEntity
  8
CC-60401-0 Strip [REF] [12]
  6
Continuous
 62
     8
 48
2.0
370
     0
100
AcDbLine
 10
-4.802493572235107
 20
3.057353973388672
 30
0.0
 11
-3.962450742721558
 21
3.057353973388672
 31
0.0
  0
LINE
  5
F1
330
BB
100
AcDbEntity
  8
CC-60401-0 Strip [REF] [12]
  6
Continuous
 62
     8
 48
2.0
370
     0
100
AcDbLine
 10
-3.096872091293335
 20
3.057353973388672
 30
0.0
 11
-2.712139129638672
 21
3.057353973388672
 31
0.0
  0
LINE
  5
F2
330
BB
100
AcDbEntity
  8
CC-60401-0 Strip [REF] [12]
  6
Continuous
 62
     8
 48
2.0
370
     0
100
AcDbLine
 10
-4.928493499755859
 20
3.183353900909424
 30
0.0
 11
-4.08845043182373
 21
3.183353900909424
 31
0.0
  0
LINE
  5
F3
330
BB
100
AcDbEntity
  8
CC-60401-0 Strip [REF] [12]
  6
Continuous
 62
     8
 48
2.0
370
     0
100
AcDbLine
 10
-2.961753606796265
 20
3.183353900909424
 30
0.0
 11
-2.674237012863159
 21
3.183353900909424
 31
0.0
  0
LINE
  5
F4
330
BB
100
AcDbEntity
  8
CC-60401-0 Strip [REF] [12]
  6
Continuous
 62
     8
 48
2.0
370
     0
100
AcDbLine
 10
-4.991493701934814
 20
3.2463538646698
 30
0.0
 11
-4.151450634002686
 21
3.2463538646698
 31
0.0
  0
LINE
  5
F5
330
BB
100
AcDbEntity
  8
CC-60401-0 Strip [REF] [12]
  6
Continuous
 62
     8
 48
2.0
370
     0
100
AcDbLine
 10
-2.894194364547729
 20
3.2463538646698
 30
0.0
 11
-2.737237215042114
 21
3.2463538646698
 31
0.0
  0
LINE
  5
F6
330
BB
100
AcDbEntity
  8
CC-60401-0 Strip [REF] [12]
  6
Continuous
 62
     8
 48
2.0
370
     0
100
AcDbLine
 10
-5.117493629455566
 20
3.372354030609131
 30
0.0
 11
-4.277450561523438
 21
3.372354030609131
 31
0.0
  0
LINE
  5
F7
330
BB
100
AcDbEntity
  8
CC-60401-0 Strip [REF] [12]
  6
Continuous
 62
     8
 48
2.0
370
     0
100
AcDbLine
 10
-5.180493354797363
 20
3.435353994369507
 30
0.0
 11
-4.33629846572876
 21
3.435353994369507
 31
0.0
  0
LINE
  5
F8
330
BB
100
AcDbEntity
  8
CC-60401-0 Strip [REF] [12]
  6
Continuous
 62
     8
 48
2.0
370
     0
100
AcDbLine
 10
-5.205539703369141
 20
3.561353921890259
 30
0.0
 11
-4.979390621185303
 21
3.561353921890259
 31
0.0
  0
LINE
  5
F9
330
BB
100
AcDbEntity
  8
CC-60401-0 Strip [REF] [12]
  6
Continuous
 62
     8
 48
2.0
370
     0
100
AcDbLine
 10
-4.928424835205078
 20
3.561353921890259
 30
0.0
 11
-4.391654491424561
 21
3.561353921890259
 31
0.0
  0
LINE
  5
FA
330
BB
100
AcDbEntity
  8
CC-60401-0 Strip [REF] [12]
  6
Continuous
 62
     8
 48
2.0
370
     0
100
AcDbLine
 10
-5.14256477355957
 20
3.624353885650635
 30
0.0
 11
-4.945892810821533
 21
3.624353885650635
 31
0.0
  0
LINE
  5
FB
330
BB
100
AcDbEntity
  8
CC-60401-0 Strip [REF] [12]
  6
Continuous
 62
     8
 48
2.0
370
     0
100
AcDbLine
 10
-4.894927024841309
 20
3.624353885650635
 30
0.0
 11
-4.396515846252441
 21
3.624353885650635
 31
0.0
  0
LINE
  5
FC
330
BB
100
AcDbEntity
  8
CC-60401-0 Strip [REF] [12]
  6
Continuous
 62
     8
 48
2.0
370
     0
100
AcDbLine
 10
-4.774734497070312
 20
3.750353813171387
 30
0.0
 11
-4.364772796630859
 21
3.750353813171387
 31
0.0
  0
LINE
  5
FD
330
BB
100
AcDbEntity
  8
CC-60401-0 Strip [REF] [12]
  6
Continuous
 62
     8
 48
2.0
370
     0
100
AcDbLine
 10
-4.711734294891357
 20
3.813354015350342
 30
0.0
 11
-4.322412490844727
 21
3.813354015350342
 31
0.0
  0
LINE
  5
FE
330
BB
100
AcDbEntity
  8
CC-60401-0 Strip [REF] [12]
  6
Continuous
 62
     8
 48
2.0
370
     0
100
AcDbLine
 10
-4.585734367370605
 20
3.939353942871094
 30
0.0
 11
-4.205121517181396
 21
3.939353942871094
 31
0.0
  0
LINE
  5
FF
330
BB
100
AcDbEntity
  8
CC-60401-0 Strip [REF] [12]
  6
Continuous
 62
     8
 48
2.0
370
     0
100
AcDbLine
 10
-4.52273416519165
 20
4.002354145050049
 30
0.0
 11
-4.14637279510498
 21
4.002354145050049
 31
0.0
  0
LINE
  5
100
330
BB
100
AcDbEntity
  8
CC-60401-0 Strip [REF] [12]
  6
Continuous
 62
     8
 48
2.0
370
     0
100
AcDbLine
 10
-4.396734237670898
 20
4.128354072570801
 30
0.0
 11
-4.028875827789307
 21
4.128354072570801
 31
0.0
  0
LINE
  5
101
330
BB
100
AcDbEntity
  8
CC-60401-0 Strip [REF] [12]
  6
Continuous
 62
     8
 48
2.0
370
     0
100
AcDbLine
 10
-4.333734035491943
 20
4.191353797912598
 30
0.0
 11
-3.970127582550049
 21
4.191353797912598
 31
0.0
  0
LINE
  5
102
330
BB
100
AcDbEntity
  8
CC-60401-0 Strip [REF] [12]
  6
Continuous
 62
     8
 48
2.0
370
     0
100
AcDbLine
 10
-4.207734107971191
 20
4.31735372543335
 30
0.0
 11
-3.852630615234375
 21
4.31735372543335
 31
0.0
  0
LINE
  5
103
330
BB
100
AcDbEntity
  8
CC-60401-0 Strip [REF] [12]
  6
Continuous
 62
     8
 48
2.0
370
     0
100
AcDbLine
 10
-4.144734382629395
 20
4.380353927612305
 30
0.0
 11
-3.87123703956604
 21
4.380353927612305
 31
0.0
  0
ENDBLK
  5
106
330
BB
100
AcDbEntity
  8
0
100
AcDbBlockEnd
  0
BLOCK
  5
115
330
107
100
AcDbEntity
  8
0
100
AcDbBlockBegin
  2
CK_HATCH_0005
 70
     0
 71
     0
 10
0.0
 20
0.0
 30
0.0
  3
CK_HATCH_0005
  1

  0
LINE
  5
108
330
107
100
AcDbEntity
  8
CC-60401-0 Strip [REF] [12]
  6
Continuous
 62
     8
 48
2.0
370
     0
100
AcDbLine
 10
2.741643667221069
 20
2.918247938156128
 30
0.0
 11
2.833567380905151
 21
2.918247938156128
 31
0.0
  0
LINE
  5
109
330
107
100
AcDbEntity
  8
CC-60401-0 Strip [REF] [12]
  6
Continuous
 62
     8
 48
2.0
370
     0
100
AcDbLine
 10
2.804643630981445
 20
2.855247974395752
 30
0.0
 11
2.896567583084106
 21
2.855247974395752
 31
0.0
  0
LINE
  5
10A
330
107
100
AcDbEntity
  8
CC-60401-0 Strip [REF] [12]
  6
Continuous
 62
     8
 48
2.0
370
     0
100
AcDbLine
 10
2.867643594741821
 20
2.792248010635376
 30
0.0
 11
2.959567546844482
 21
2.792248010635376
 31
0.0
  0
LINE
  5
10B
330
107
100
AcDbEntity
  8
CC-60401-0 Strip [REF] [12]
  6
Continuous
 62
     8
 48
2.0
370
     0
100
AcDbLine
 10
2.930643558502197
 20
2.729247808456421
 30
0.0
 11
3.022567510604858
 21
2.729247808456421
 31
0.0
  0
LINE
  5
10C
330
107
100
AcDbEntity
  8
CC-60401-0 Strip [REF] [12]
  6
Continuous
 62
     8
 48
2.0
370
     0
100
AcDbLine
 10
2.993643522262573
 20
2.666247844696045
 30
0.0
 11
3.085567474365234
 21
2.666247844696045
 31
0.0
  0
LINE
  5
10D
330
107
100
AcDbEntity
  8
CC-60401-0 Strip [REF] [12]
  6
Continuous
 62
     8
 48
2.0
370
     0
100
AcDbLine
 10
3.056643724441528
 20
2.603247880935669
 30
0.0
 11
3.14856743812561
 21
2.603247880935669
 31
0.0
  0
LINE
  5
10E
330
107
100
AcDbEntity
  8
CC-60401-0 Strip [REF] [12]
  6
Continuous
 62
     8
 48
2.0
370
     0
100
AcDbLine
 10
3.119643688201904
 20
2.540247917175293
 30
0.0
 11
3.211567401885986
 21
2.540247917175293
 31
0.0
  0
LINE
  5
10F
330
107
100
AcDbEntity
  8
CC-60401-0 Strip [REF] [12]
  6
Continuous
 62
     8
 48
2.0
370
     0
100
AcDbLine
 10
3.18264365196228
 20
2.477247953414917
 30
0.0
 11
3.274567604064941
 21
2.477247953414917
 31
0.0
  0
LINE
  5
110
330
107
100
AcDbEntity
  8
CC-60401-0 Strip [REF] [12]
  6
Continuous
 62
     8
 48
2.0
370
     0
100
AcDbLine
 10
3.245643615722656
 20
2.414247989654541
 30
0.0
 11
3.337567567825317
 21
2.414247989654541
 31
0.0
  0
LINE
  5
111
330
107
100
AcDbEntity
  8
CC-60401-0 Strip [REF] [12]
  6
Continuous
 62
     8
 48
2.0
370
     0
100
AcDbLine
 10
3.308643579483032
 20
2.351248025894165
 30
0.0
 11
3.400567531585693
 21
2.351248025894165
 31
0.0
  0
LINE
  5
112
330
107
100
AcDbEntity
  8
CC-60401-0 Strip [REF] [12]
  6
Continuous
 62
     8
 48
2.0
370
     0
100
AcDbLine
 10
3.371643543243408
 20
2.28824782371521
 30
0.0
 11
3.447481155395508
 21
2.28824782371521
 31
0.0
  0
LINE
  5
113
330
107
100
AcDbEntity
  8
CC-60401-0 Strip [REF] [12]
  6
Continuous
 62
     8
 48
2.0
370
     0
100
AcDbLine
 10
3.434643507003784
 20
2.225247859954834
 30
0.0
 11
3.464361906051636
 21
2.225247859954834
 31
0.0
  0
ENDBLK
  5
116
330
107
100
AcDbEntity
  8
0
100
AcDbBlockEnd
  0
ENDSEC
  0
SECTION
  2
ENTITIES
  0
ARC
  5
30
330
1F
100
AcDbEntity
  8
CC-60401-0 Strip [REF] [12]
  6
Continuous
 62
   252
370
     0
100
AcDbCircle
 10
0.453478314164962
 20
-0.1889327141330823
 30
0.0
 40
0.092
100
AcDbArc
 50
345.6406676094983
 51
73.73706936452503
  0
ARC
  5
31
330
1F
100
AcDbEntity
  8
CC-60401-0 Strip [REF] [12]
  6
Continuous
 62
   252
370
     0
100
AcDbCircle
 10
0.4537287523044031
 20
1.209005824840131
 30
0.0
 40
0.092
100
AcDbArc
 50
286.2630242281972
 51
19.29002492238744
  0
ARC
  5
32
330
1F
100
AcDbEntity
  8
CC-60401-0 Strip [REF] [12]
  6
Continuous
 62
   252
370
     0
100
AcDbCircle
 10
0.625
 20
0.51
 30
0.0
 40
0.627
100
AcDbArc
 50
106.2630242281974
 51
253.737069364525
  0
ARC
  5
33
330
1F
100
AcDbEntity
  8
CC-60401-0 Strip [REF] [12]
  6
Continuous
 62
   252
370
     0
100
AcDbCircle
 10
0.3252141332647241
 20
-0.6899648219603309
 30
0.0
 40
0.092
100
AcDbArc
 50
291.7031728436612
 51
345.6406676094982
  0
ARC
  5
34
330
1F
100
AcDbEntity
  8
CC-60401-0 Strip [REF] [12]
  6
Continuous
 62
   252
370
     0
100
AcDbCircle
 10
0.3833512971793342
 20
1.410084507759025
 30
0.0
 40
0.092
100
AcDbArc
 50
19.29002492238744
 51
72.04475688511167
  0
ARC
  5
35
330
1F
100
AcDbEntity
  8
CC-60401-0 Strip [REF] [12]
  6
Continuous
 62
   252
370
     0
100
AcDbCircle
 10
0.3050878156486716
 20
-0.7685832738710368
 30
0.0
 40
0.092
100
AcDbArc
 50
271.9999999999999
 51
345.6406676094984
  0
ARC
  5
36
330
1F
100
AcDbEntity
  8
CC-60401-0 Strip [REF] [12]
  6
Continuous
 62
   252
370
     0
100
AcDbCircle
 10
0.3565052276169924
 20
1.486787655088686
 30
0.0
 40
0.092
100
AcDbArc
 50
19.29002492238744
 51
88.0
  0
LINE
  5
37
330
1F
100
AcDbEntity
  8
CC-60401-0 Strip [REF] [12]
  6
Continuous
 62
   252
370
     0
100
AcDbLine
 10
0.3942136834989887
 20
-0.791399489155957
 30
0.0
 11
0.542604182015279
 21
-0.2117489294180024
 31
0.0
  0
LINE
  5
38
330
1F
100
AcDbEntity
  8
CC-60401-0 Strip [REF] [12]
  6
Continuous
 62
   252
370
     0
100
AcDbLine
 10
0.4494113630095079
 20
-0.091911646805261
 30
0.0
 11
0.4792425160838221
 21
-0.1006139398012099
 31
0.0
  0
LINE
  5
39
330
1F
100
AcDbEntity
  8
CC-60401-0 Strip [REF] [12]
  6
Continuous
 62
   252
370
     0
100
AcDbLine
 10
0.4494103797863678
 20
1.111911359980216
 30
0.0
 11
0.479493098492049
 21
1.12068709259423
 31
0.0
  0
LINE
  5
3A
330
1F
100
AcDbEntity
  8
CC-60401-0 Strip [REF] [12]
  6
Continuous
 62
   252
370
     0
100
AcDbLine
 10
0.5405637323868447
 20
1.239398031638617
 30
0.0
 11
0.4433402076994341
 21
1.517179861887172
 31
0.0
  0
LINE
  5
3B
330
1F
100
AcDbEntity
  8
CC-60401-0 Strip [REF] [12]
  6
Continuous
 62
   252
370
     0
100
AcDbLine
 10
0.0648714044998455
 20
1.609999928602106
 30
0.0
 11
-0.1061476770318258
 21
1.609999928602106
 31
0.0
  0
LINE
  5
3C
330
1F
100
AcDbEntity
  8
CC-60401-0 Strip [REF] [12]
  6
Continuous
 62
   252
370
     0
100
AcDbLine
 10
0.0714132440065199
 20
-0.8900000117932494
 30
0.0
 11
-0.1061476770318258
 21
-0.8900000117932494
 31
0.0
  0
LINE
  5
3D
330
1F
100
AcDbEntity
  8
CC-60401-0 Strip [REF] [12]
  6
Continuous
 62
   252
370
     0
100
AcDbLine
 10
-0.1061476770318258
 20
-0.8900000117932494
 30
0.0
 11
-0.1061476770318258
 21
1.609999928602106
 31
0.0
  0
LINE
  5
3E
330
1F
100
AcDbEntity
  8
CC-60401-0 Strip [REF] [12]
  6
Continuous
 62
   252
370
     0
100
AcDbLine
 10
0.0714132440065199
 20
-0.8900000117932494
 30
0.0
 11
0.3592355684817214
 21
-0.7754431346821884
 31
0.0
  0
LINE
  5
3F
330
1F
100
AcDbEntity
  8
CC-60401-0 Strip [REF] [12]
  6
Continuous
 62
   252
370
     0
100
AcDbLine
 10
0.0648714044998455
 20
1.609999928602106
 30
0.0
 11
0.4117125031192899
 21
1.497603888456283
 31
0.0
  0
LINE
  5
40
330
1F
100
AcDbEntity
  8
CC-60401-0 Strip [REF] [12]
  6
Continuous
 62
   252
370
     0
100
AcDbLine
 10
0.1298022498456581
 20
-0.8667604587851658
 30
0.0
 11
0.3082985693453016
 21
-0.8605272299567936
 31
0.0
  0
LINE
  5
41
330
1F
100
AcDbEntity
  8
CC-60401-0 Strip [REF] [12]
  6
Continuous
 62
   252
370
     0
100
AcDbLine
 10
0.1374052729841542
 20
1.586494872175563
 30
0.0
 11
0.3597159813136225
 21
1.578731611174442
 31
0.0
  0
INSERT
  5
42
330
1F
100
AcDbEntity
  8
0
100
AcDbBlockReference
  2
COMPOSITE
 10
0.0
 20
0.0
 30
0.0
  0
ARC
  5
23F
330
1F
100
AcDbEntity
  8
_A_ Insert Shaper_ 0° Tilt [5]
  6
Continuous
 62
   163
370
     0
100
AcDbCircle
 10
0.3777111817285997
 20
-0.0350199094118266
 30
0.0
 40
0.03
100
AcDbArc
 50
0.0
 51
86.9999999999999
  0
ARC
  5
240
330
1F
100
AcDbEntity
  8
_A_ Insert Shaper_ 0° Tilt [5]
  6
Continuous
 62
   163
370
     0
100
AcDbCircle
 10
0.3777111817285997
 20
1.055019909411826
 30
0.0
 40
0.03
100
AcDbArc
 50
273.0
 51
0.0
  0
ARC
  5
241
330
1F
100
AcDbEntity
  8
_A_ Insert Shaper_ 0° Tilt [5]
  6
Continuous
 62
   163
370
     0
100
AcDbCircle
 10
0.2730883940958356
 20
1.00247236118769
 30
0.0
 40
0.08
100
AcDbArc
 50
92.99999999999999
 51
127.309436453842
  0
ARC
  5
242
330
1F
100
AcDbEntity
  8
_A_ Insert Shaper_ 0° Tilt [5]
  6
Continuous
 62
   163
370
     0
100
AcDbCircle
 10
0.2730883940958352
 20
0.0175276388123102
 30
0.0
 40
0.08
100
AcDbArc
 50
232.690563546158
 51
267.0
  0
ARC
  5
243
330
1F
100
AcDbEntity
  8
_A_ Insert Shaper_ 0° Tilt [5]
  6
Continuous
 62
   163
370
     0
100
AcDbCircle
 10
0.625
 20
0.51
 30
0.0
 40
0.685
100
AcDbArc
 50
127.3094364538421
 51
232.6905635461579
  0
ARC
  5
244
330
1F
100
AcDbEntity
  8
_A_ Insert Shaper_ 0° Tilt [5]
  6
Continuous
 62
   163
370
     0
100
AcDbCircle
 10
-0.1172888182714002
 20
0.7279612828307316
 30
0.0
 40
0.3
100
AcDbArc
 50
102.0
 51
180.0
  0
ARC
  5
245
330
1F
100
AcDbEntity
  8
_A_ Insert Shaper_ 0° Tilt [5]
  6
Continuous
 62
   163
370
     0
100
AcDbCircle
 10
-0.1172888182714003
 20
0.2920387171692685
 30
0.0
 40
0.3
100
AcDbArc
 50
180.0
 51
257.9999999999999
  0
ARC
  5
246
330
1F
100
AcDbEntity
  8
_A_ Insert Shaper_ 0° Tilt [5]
  6
Continuous
 62
   163
370
     0
100
AcDbCircle
 10
0.2843608947874597
 20
0.063
 30
0.0
 40
0.063
100
AcDbArc
 50
232.690563546158
 51
267.0
  0
ARC
  5
247
330
1F
100
AcDbEntity
  8
_A_ Insert Shaper_ 0° Tilt [5]
  6
Continuous
 62
   163
370
     0
100
AcDbCircle
 10
0.2843608947874601
 20
0.9570000000000001
 30
0.0
 40
0.063
100
AcDbArc
 50
92.99999999999991
 51
127.3094364538419
  0
ARC
  5
248
330
1F
100
AcDbEntity
  8
_A_ Insert Shaper_ 0° Tilt [5]
  6
Continuous
 62
   163
370
     0
100
AcDbCircle
 10
0.625
 20
0.51
 30
0.0
 40
0.625
100
AcDbArc
 50
127.309436453842
 51
232.6905635461579
  0
LINE
  5
249
330
1F
100
AcDbEntity
  8
_A_ Insert Shaper_ 0° Tilt [5]
  6
Continuous
 62
   163
370
     0
100
AcDbLine
 10
0.2689015175963996
 20
-0.0623627239680557
 30
0.0
 11
0.3577111817285998
 21
-0.0670170412440971
 31
0.0
  0
LINE
  5
24A
330
1F
100
AcDbEntity
  8
_A_ Insert Shaper_ 0° Tilt [5]
  6
Continuous
 62
   163
370
     0
100
AcDbLine
 10
0.3577111817285998
 20
1.087017041244097
 30
0.0
 11
0.2689015175964001
 21
1.082362723968056
 31
0.0
  0
LINE
  5
24B
330
1F
100
AcDbEntity
  8
_A_ Insert Shaper_ 0° Tilt [5]
  6
Continuous
 62
   163
370
     0
100
AcDbLine
 10
0.2245988417524131
 20
-0.046102254426124
 30
0.0
 11
0.2098082080594484
 21
-0.0348309608540928
 31
0.0
  0
LINE
  5
24C
330
1F
100
AcDbEntity
  8
_A_ Insert Shaper_ 0° Tilt [5]
  6
Continuous
 62
   163
370
     0
100
AcDbLine
 10
0.2245988417524135
 20
1.066102254426124
 30
0.0
 11
0.2098082080594486
 21
1.054830960854093
 31
0.0
  0
LINE
  5
24D
330
1F
100
AcDbEntity
  8
_A_ Insert Shaper_ 0° Tilt [5]
  6
Continuous
 62
   163
370
     0
100
AcDbLine
 10
0.3077111817285998
 20
-0.105
 30
0.0
 11
-0.1796623255167282
 21
-0.0014055630508732
 31
0.0
  0
LINE
  5
24E
330
1F
100
AcDbEntity
  8
_A_ Insert Shaper_ 0° Tilt [5]
  6
Continuous
 62
   163
370
     0
100
AcDbLine
 10
0.3077111817285998
 20
1.125
 30
0.0
 11
-0.1796623255167281
 21
1.021405563050873
 31
0.0
  0
LINE
  5
24F
330
1F
100
AcDbEntity
  8
_A_ Insert Shaper_ 0° Tilt [5]
  6
Continuous
 62
   163
370
     0
100
AcDbLine
 10
0.4077111817285998
 20
1.055019909411826
 30
0.0
 11
0.4077111817285998
 21
1.25
 31
0.0
  0
LINE
  5
250
330
1F
100
AcDbEntity
  8
_A_ Insert Shaper_ 0° Tilt [5]
  6
Continuous
 62
   163
370
     0
100
AcDbLine
 10
0.3577111817285998
 20
1.087017041244097
 30
0.0
 11
0.3577111817285998
 21
1.25
 31
0.0
  0
LINE
  5
251
330
1F
100
AcDbEntity
  8
_A_ Insert Shaper_ 0° Tilt [5]
  6
Continuous
 62
   163
370
     0
100
AcDbLine
 10
0.3077111817285998
 20
1.125
 30
0.0
 11
0.3077111817285998
 21
1.25
 31
0.0
  0
LINE
  5
252
330
1F
100
AcDbEntity
  8
_A_ Insert Shaper_ 0° Tilt [5]
  6
Continuous
 62
   163
370
     0
100
AcDbLine
 10
-0.4172888182714003
 20
0.2920387171692685
 30
0.0
 11
-0.4172888182714003
 21
0.7279612828307316
 31
0.0
  0
LINE
  5
253
330
1F
100
AcDbEntity
  8
_A_ Insert Shaper_ 0° Tilt [5]
  6
Continuous
 62
   163
370
     0
100
AcDbLine
 10
-2.0922888182714
 20
-0.23
 30
0.0
 11
-2.0922888182714
 21
1.25
 31
0.0
  0
LINE
  5
254
330
1F
100
AcDbEntity
  8
_A_ Insert Shaper_ 0° Tilt [5]
  6
Continuous
 62
   163
370
     0
100
AcDbLine
 10
0.3077111817285998
 20
-0.23
 30
0.0
 11
0.3077111817285998
 21
-0.105
 31
0.0
  0
LINE
  5
255
330
1F
100
AcDbEntity
  8
_A_ Insert Shaper_ 0° Tilt [5]
  6
Continuous
 62
   163
370
     0
100
AcDbLine
 10
0.3577111817285998
 20
-0.23
 30
0.0
 11
0.3577111817285998
 21
-0.0670170412440971
 31
0.0
  0
LINE
  5
256
330
1F
100
AcDbEntity
  8
_A_ Insert Shaper_ 0° Tilt [5]
  6
Continuous
 62
   163
370
     0
100
AcDbLine
 10
0.3077111817285998
 20
-0.105
 30
0.0
 11
-2.0922888182714
 21
-0.105
 31
0.0
  0
LINE
  5
257
330
1F
100
AcDbEntity
  8
_A_ Insert Shaper_ 0° Tilt [5]
  6
Continuous
 62
   163
370
     0
100
AcDbLine
 10
0.3077111817285998
 20
1.125
 30
0.0
 11
-2.0922888182714
 21
1.125
 31
0.0
  0
LINE
  5
258
330
1F
100
AcDbEntity
  8
_A_ Insert Shaper_ 0° Tilt [5]
  6
Continuous
 62
   163
370
     0
100
AcDbLine
 10
0.3077111817285998
 20
-0.23
 30
0.0
 11
-2.0922888182714
 21
-0.23
 31
0.0
  0
LINE
  5
259
330
1F
100
AcDbEntity
  8
_A_ Insert Shaper_ 0° Tilt [5]
  6
Continuous
 62
   163
370
     0
100
AcDbLine
 10
0.3077111817285998
 20
1.25
 30
0.0
 11
-2.0922888182714
 21
1.25
 31
0.0
  0
LINE
  5
25A
330
1F
100
AcDbEntity
  8
_A_ Insert Shaper_ 0° Tilt [5]
  6
Continuous
 62
   163
370
     0
100
AcDbLine
 10
0.2810637295441543
 20
0.0000863393104618
 30
0.0
 11
0.3792812604158881
 21
-0.0050610233691893
 31
0.0
  0
LINE
  5
25B
330
1F
100
AcDbEntity
  8
_A_ Insert Shaper_ 0° Tilt [5]
  6
Continuous
 62
   163
370
     0
100
AcDbLine
 10
0.3792812604158881
 20
1.025061023369189
 30
0.0
 11
0.2810637295441547
 21
1.019913660689538
 31
0.0
  0
LINE
  5
25C
330
1F
100
AcDbEntity
  8
_A_ Insert Shaper_ 0° Tilt [5]
  6
Continuous
 62
   163
370
     0
100
AcDbLine
 10
0.4077111817285998
 20
-0.23
 30
0.0
 11
0.4077111817285998
 21
-0.0350199094118266
 31
0.0
  0
LINE
  5
25D
330
1F
100
AcDbEntity
  8
Pattern #0518 [1]
  6
DASHED
 62
    15
370
     0
100
AcDbLine
 10
1.125
 20
1.02
 30
0.0
 11
0.3127111817285997
 21
1.02
 31
0.0
  0
LINE
  5
25E
330
1F
100
AcDbEntity
  8
Pattern #0518 [1]
  6
DASHED
 62
    15
370
     0
100
AcDbLine
 10
1.125
 20
0.0
 30
0.0
 11
1.125
 21
1.02
 31
0.0
  0
LINE
  5
25F
330
1F
100
AcDbEntity
  8
Pattern #0518 [1]
  6
DASHED
 62
    15
370
     0
100
AcDbLine
 10
0.3127111817286008
 20
0.0
 30
0.0
 11
1.125
 21
0.0
 31
0.0
  0
CIRCLE
  5
260
330
1F
100
AcDbEntity
  8
Pattern #0518 [1]
  6
Continuous
 62
     8
370
     0
100
AcDbCircle
 10
0.625
 20
0.51
 30
0.0
 40
0.008
  0
CIRCLE
  5
261
330
1F
100
AcDbEntity
  8
Pattern #0518 [1]
  6
Continuous
 62
     8
370
     0
100
AcDbCircle
 10
0.2843608947874597
 20
0.063
 30
0.0
 40
0.008
  0
CIRCLE
  5
262
330
1F
100
AcDbEntity
  8
Pattern #0518 [1]
  6
Continuous
 62
     8
370
     0
100
AcDbCircle
 10
0.2843608947874601
 20
0.9570000000000001
 30
0.0
 40
0.008
  0
ARC
  5
263
330
1F
100
AcDbEntity
  8
Pattern #0518 [1]
  6
Continuous
 62
     3
370
     0
100
AcDbCircle
 10
0.2843608947874597
 20
0.063
 30
0.0
 40
0.063
100
AcDbArc
 50
232.690563546158
 51
267.0
  0
ARC
  5
264
330
1F
100
AcDbEntity
  8
Pattern #0518 [1]
  6
Continuous
 62
     3
370
     0
100
AcDbCircle
 10
0.2843608947874601
 20
0.9570000000000001
 30
0.0
 40
0.063
100
AcDbArc
 50
92.99999999999991
 51
127.3094364538419
  0
ARC
  5
265
330
1F
100
AcDbEntity
  8
Pattern #0518 [1]
  6
Continuous
 62
     3
370
     0
100
AcDbCircle
 10
0.625
 20
0.51
 30
0.0
 40
0.625
100
AcDbArc
 50
127.309436453842
 51
232.6905635461579
  0
LINE
  5
266
330
1F
100
AcDbEntity
  8
Pattern #0518 [1]
  6
Continuous
 62
     3
370
     0
100
AcDbLine
 10
0.2810637295441543
 20
0.0000863393104618
 30
0.0
 11
0.2827111817286008
 21
0.0
 31
0.0
  0
LINE
  5
267
330
1F
100
AcDbEntity
  8
Pattern #0518 [1]
  6
Continuous
 62
     3
370
     0
100
AcDbLine
 10
0.2827111817285998
 20
1.02
 30
0.0
 11
0.2810637295441547
 21
1.019913660689538
 31
0.0
  0
VIEWPORT
  5
26A
330
1B
100
AcDbEntity
 67
     1
  8
0
 62
    15
100
AcDbViewport
 10
5.25
 20
4.0
 30
0.0
 40
11.638
 41
8.993
 68
     1
 69
     1
 12
5.25
 22
4.0
 13
0.0
 23
0.0
 14
0.5
 24
0.5
 15
0.5
 25
0.5
 16
0.0
 26
0.0
 36
1.0
 17
0.0
 27
0.0
 37
0.0
 42
50.0
 43
0.0
 44
0.0
 45
8.993
 50
0.0
 51
0.0
 72
   100
 90
    32800
  1

281
     0
 71
     1
 74
     0
110
0.0
120
0.0
130
0.0
111
1.0
121
0.0
131
0.0
112
0.0
122
1.0
132
0.0
 79
     0
146
0.0
  0
ENDSEC
  0
SECTION
  2
OBJECTS
  0
DICTIONARY
  5
C
330
0
100
AcDbDictionary
281
     1
  3
ACAD_GROUP
350
D
  3
ACAD_LAYOUT
350
1A
  3
ACAD_MLINESTYLE
350
17
  3
ACAD_PLOTSETTINGS
350
19
  3
ACAD_PLOTSTYLENAME
350
E
  3
KeyCreatorLevelsByLayouts
350
268
  0
DICTIONARY
  5
D
102
{ACAD_REACTORS
330
C
102
}
330
C
100
AcDbDictionary
281
     1
  0
DICTIONARY
  5
1A
102
{ACAD_REACTORS
330
C
102
}
330
C
100
AcDbDictionary
281
     1
  3
Layout1
350
1E
  3
Model
350
22
  0
DICTIONARY
  5
17
102
{ACAD_REACTORS
330
C
102
}
330
C
100
AcDbDictionary
281
     1
  3
Standard
350
18
  0
DICTIONARY
  5
19
102
{ACAD_REACTORS
330
C
102
}
330
C
100
AcDbDictionary
281
     1
  0
ACDBDICTIONARYWDFLT
  5
E
102
{ACAD_REACTORS
330
C
102
}
330
C
100
AcDbDictionary
281
     1
  3
Normal
350
F
100
AcDbDictionaryWithDefault
340
F
  0
DICTIONARY
  5
268
102
{ACAD_REACTORS
330
C
102
}
330
C
100
AcDbDictionary
281
     1
  3
Detail Drawing
350
269
  0
LAYOUT
  5
1E
102
{ACAD_REACTORS
330
1A
102
}
330
1A
100
AcDbPlotSettings
  1

  2
none_device
  4
Letter_(8.50_x_11.00_Inches)
  6

 40
6.35
 41
6.35
 42
6.35001
 43
6.35001
 44
215.9
 45
279.4
 46
0.0
 47
0.0
 48
0.0
 49
0.0
140
0.0
141
0.0
142
1.0
143
1.0
 70
   688
 72
     0
 73
     1
 74
     5
  7

 75
    16
147
1.0
148
0.0
149
0.0
100
AcDbLayout
  1
Layout1
 70
     1
 71
     1
 10
-0.25
 20
-0.25
 11
10.75
 21
8.25
 12
0.0
 22
0.0
 32
0.0
 14
1.000000000000000E+20
 24
1.000000000000000E+20
 34
1.000000000000000E+20
 15
-1.000000000000000E+20
 25
-1.000000000000000E+20
 35
-1.000000000000000E+20
146
0.0
 13
0.0
 23
0.0
 33
0.0
 16
1.0
 26
0.0
 36
0.0
 17
0.0
 27
1.0
 37
0.0
 76
     0
330
1B
331
26A
  0
LAYOUT
  5
22
102
{ACAD_REACTORS
330
1A
102
}
330
1A
100
AcDbPlotSettings
  1

  2

  4

  6

 40
0.0
 41
0.0
 42
0.0
 43
0.0
 44
0.0
 45
0.0
 46
0.0
 47
0.0
 48
0.0
 49
0.0
140
0.0
141
0.0
142
1.0
143
1.0
 70
  1712
 72
     0
 73
     0
 74
     0
  7

 75
     0
147
1.0
148
0.0
149
0.0
100
AcDbLayout
  1
Model
 70
     1
 71
     0
 10
0.0
 20
0.0
 11
12.0
 21
9.0
 12
0.0
 22
0.0
 32
0.0
 14
1.000000000000000E+20
 24
1.000000000000000E+20
 34
1.000000000000000E+20
 15
-1.000000000000000E+20
 25
-1.000000000000000E+20
 35
-1.000000000000000E+20
146
0.0
 13
0.0
 23
0.0
 33
0.0
 16
1.0
 26
0.0
 36
0.0
 17
0.0
 27
1.0
 37
0.0
 76
     0
330
1F
  0
MLINESTYLE
  5
18
102
{ACAD_REACTORS
330
17
102
}
330
17
100
AcDbMlineStyle
  2
Standard
 70
     0
  3

 62
   256
 51
90.0
 52
90.0
 71
     2
 49
0.5
 62
   256
  6
BYLAYER
 49
-0.5
 62
   256
  6
BYLAYER
  0
ACDBPLACEHOLDER
  5
F
102
{ACAD_REACTORS
330
E
102
}
330
E
  0
XRECORD
  5
269
102
{ACAD_REACTORS
330
268
102
}
330
268
100
AcDbXrecord
280
     1
1000

  0
ENDSEC
  0
EOF
